Guitar Tabs, Chords and Lyrics


Madison Prep    Further Seems Forever



-------------------------------------------------------------------------------
MADISON PREP - Further Seems Forever
-------------------------------------------------------------------------------

By:Matt Gutteridge

standard tuning
-pm- palm mute
h hammer on
p pull off

INTRO
e|----------------------------------------|
B|----------------------------------------|
G|------------------555555666666----------|
D|----------------3-666666666666----------|
A|-33333333---------444444444444-33-333---|
E|-11111111-1h4p1----------------11-111---|
...pm

VERSE - guitar 1
e|-------------------------------------------------|
B|-------------------------9p8-----8-9-------------|
G|-----8-------------8---8-----8-------8-----------|
D|--10---8h10-10--10--10--------10--------33-333---| x2
A|-8-------------8------------------------11-111---|
E|-------------------------------------------------|
...pm
VERSE - guitar 2 (chords line up with guit 1)
e|-------------------------------------------------|
B|-------------------------------------------------|
G|-------------------------------------------------|
D|-666666--3333333---6666666----3333333--33-333----| x2
A|-444444--1111111---4444444----1111111--11-111----|
E|-------------------------------------------------|
...pm
PRE,PRE-CHORUS!
e|---|
B|---|play this chord quickly after the muted notes
G|---|at the end of the verse before the pre chorus
D|---|
A|-3-|
E|-1-|

1st PRE-CHORUS
guitar 1
e|------------------|
B|------------------|
G|-656-656-656-656--|
D|------------------|
A|-444-444-444-444--|
E|------------------|

CHORUS
1 guitar simply repeats the pre-chorus for the entire
duration of the chorus. the other guitar plays these
backing chords:
e|---------------------------------------|
B|---------------------------------------|
G|---------------------------------------|
D|---------------------------------------|
A|-6666666666-444444-888888-444444444444-|
E|-4444444444-222222-666666-222222222222-|

2nd part of chorus chords
e|--------------------------------------------------------|
B|--------------------------------------------------------|
G|--------------------------------------------------------|
D|-66666666666--------------------------------------------|
A|-44444444444-666666666666-4444444-88888888-444444444444-|
E|-------------444444444444-2222222-66666666-222222222222-|

REPEAT VERSE (both guitars) and the pre,pre-chorus chord

2nd PRE-CHORUS (only differnce to 1st one is the backing chord)
guitar 1 guit 2
e|------------------| e|-----------------|
B|------------------| b|-----------------|
G|-656-656-656-656--| G|-----------------|
D|------------------| D|-666-666-666-666-|
A|-444-444-444-444--| A|-444-444-444-444-|
E|------------------| E|-----------------|

REPEAT CHORUS THEN,
REPEAT INTRO

BREAKDOWN (broken down for 2 guitars)
guitar 1
e|---------4p3-----3-4-----4p3---4p3---4p3---4p3------|
B|-4-----4-----4-------4-2-----2-----2-----2----------|
G|---3h5---------5------------------------------------|
D|----------------------------------------------------|
A|-----------------------------------------------333--|
E|-----------------------------------------------111--|

guitar 2
e|-----------------------------------------------------|
B|-----------------------------------------------------|
G|-----------------------------------------------------|
D|-----------------8-----6----------------------101010-|
A|--3------------3-6-----------6-----8----10-----8-8-8-|
E|--1------------1-------------------------------------|
.let ring .let ring

BREAKDOWN CONT.
guitar 1 (the 8-6-5 part IS in there, but its hard to hear)
e|------------------|
B|------------------|
G|----8-6-5---------|
D|-66-------888-----| repeat until pre-chorus
A|-44-------666-888-|
E|--------------111-|

guitar 2
e|-------------------|
B|-------------------|
G|-------------------|
D|-13-13-13-12-12-12-| repeat over and over until pre-chorus
A|-11-11-11-10-10-10-|
E|-------------------|

REPEAT 2nd PRE-CHORUS
REPEAT CHORUS and then do it again stating from the
second set of chorus chords

ENDING
e|------------------|
B|------------------|
D|------------------|
A|-33333333-------3-|
E|-11111111-pause-1-|

its a bit of a maze of tab and theres way too
many explanations throughout - sorry but its quite
a tech song so it cant really be helped.
enjoy!



Important: The song above is NOT stored on the Chordie server. The original song is hosted at www.xguitar.com. Chordie works as a search engine and provides on-the-fly formatting. Chordie does not index songs against artists'/composers' will. To remove this song please click here.

This song is displayed as text-only. Transposing and tuning is only available for chordpro-songs.

Login - add to songbook

Rating click stars to rate

Layout
Accuracy

SHARE PAGE  




You need to log in to post comments