Chordie logo


So Like a Rose   Garbage



So like a Rose

One of the best and saddest songs ever. track 13 of beautifulgarbage

Intro

--2----7 times --------
--5----        --2---2-
--4----        --2---2-
--2----        --2---2-
--2----        --------
--0----        --------


Baby thinks         Hes Dying

-2-----2----2---2--------------------------
-5-----5----5---5---2--2--2---------------
-4-----4----4---4---2--2--2---------------
-2-----2----2---2---2--2--2---------------
-2-----2----2---2-------------------------
-0-----0----0---0-------------------------

Lost inside         His bedroom

-2-----2----2---2--------------------------
-5-----5----5---5---2--2--2---------------
-4-----4----4---4---2--2--2---------------
-2-----2----2---2---2--2--2---------------
-2-----2----2---2-------------------------
-0-----0----0---0-------------------------

Mommy wont       stop crying
-2-----2----2---2--------------------------
-5-----5----5---5---2--2--2---------------
-4-----4----4---4---2--2--2---------------
-2-----2----2---2---2--2--2---------------
-2-----2----2---2-------------------------
-0-----0----0---0-------------------------

And daddys always   working

-2-----2----2---2--------------------------
-5-----5----5---5---2--2--2---------------
-4-----4----4---4---2--2--2---------------
-2-----2----2---2---2--2--2---------------
-2-----2----2---2-------------------------
    Theres no going back     Theres no going back

--3------------------------3------------
----------------------------------------
----------------------------------------
----------------------------------------
--2------------------------2------------
--3------------------------3------------

second and third verses and chorus are the same
except that in second verse

gtr 2

-------------------
-------------------
-------------------
---------2---------
-----3------3------
-2-----------------
-------------------



Important: The song above is NOT stored on the Chordie server. The original song is hosted at www.xguitar.com. Chordie works as a search engine and provides on-the-fly formatting. Chordie does not index songs against artists/composers will. To remove this song please click here.

This song is displayed as text-only. Transposing and tuning is only available for chordpro-songs.

Login - add to songbook

Rating click stars to rate

Layout
Accuracy

SHARE PAGE  




You need to log in to post comments