Guitar Tabs, Chords and Lyrics


Queer   Garbage



X===============================PLEASE NOTE==============================X
X  This tab is all my own and represents my interpretation of the song.  X
X You may only use this tab for private study, scholarship, or research. X
X  Do not change, deface, mutilate, or in any other way alter this tab.  X
X   You must email me first if you want to use this tab on your site.    X
X========================================================================X
*Queer*
Transcribed by Obscured@san.rr.com
Http://home.san.rr.com/obscured
Tuning: E A D G B E
INTRO - With tremolo effects
|-20----------------------|
|-------20----------------|
|-------------19----------|
|-------------------20----|
|-------------------------|
|-------------------------|
VERSE

Lead fill
|----------------|
|----------------|
|-0-3-5--5b6r5-3-|
|----------------|
|----------------|
|----------------|
CHORUS

 Guitar 1
|------------------------------------|
|------------------------------------|
|------8----5---------8----5----8----|
|-5----8----5----3----8----5----8----|
|-5----6----3----3----6----3----6----|
|-3--------------1-------------------|
|Guitar 2
|-20--------20--------20-------------|
|------20--------20--------20--------|
|-------------------------------19---|
|------------------------------------|
|------------------------------------|
|------------------------------------|
Then play the intro again
VERSE 2 - Same
CHORUS 2 - Same
INTERLUDE

Guitar 1 keeps repeating this riff
|--------------|
|--------------|
|-9/10\9-9-10--|
|--------------|
|-7/8-\7-7-8---|
|--------------|

Guitar 2 plays these leads
|----------------------------------------
|---------16b18~~~~----------------------
|-15~~~~---------------------------------
|--------------------10b12~~~~-----------
|----------------------------------------
|-------------------------------1~~~~----

 -----------12b13~~~~-------------------|
 ---------------------------------------|
 -9b10~~~~-------------10/14-15\10~~~~--|
 ---------------------------------------|
 ----------------------8-/12-13\8-------|
 ---------------------------------------|
BRIDGE
|--------------|
|--------------|
|-9/10\9-9-10--|
|--------------|
|-7/8-\7-7-8---|
|--------------|
CHORUS 3

 Guitar 1
|---------------------|
|---------------------|
|------8----5---------|
|-5----8----5----3----|
|-5----6----3----3----|
|-3--------------1----|
|Guitar 2
|-20--------20--------|
|------20--------20---|
|---------------------|
|---------------------|
|---------------------|
|---------------------|

 Guitar 1
|---------------------|
|---------------------|
|------8----5----7----|
|-5----8----5----7----|
|-5----6----3----5----|
|-3-------------------|
|Guitar 2
|-20--------20--------|
|------20--------20---|
|---------------------|
|---------------------|
|---------------------|
|---------------------|

 Guitar 1
|------------------------------------|
|------------------------------------|
|------8----5---------8----5----8----|
|-5----8----5----3----8----5----8----|
|-5----6----3----3----6----3----6----|
|-3--------------1-------------------|
|Guitar 2
|-20--------20--------20-------------|
|------20--------20--------20--------|
|-------------------------------19---|
|------------------------------------|
|------------------------------------|
|------------------------------------|

A 3rd guitar plays this throughout
|-----------------|
|-----------------|
|-----------------|
|-11/12\11-11-12--|
|-12/13\12-12-13--|
|-----------------|
This lead fill is also played sometimes
|--------------------|
|--------------------|
|-12~~-12b14-12~~~~--|
|--------------------|
|--------------------|
|--------------------|
OUTRO - Play intro


Important: The song above is NOT stored on the Chordie server. The original song is hosted at www.xguitar.com. Chordie works as a search engine and provides on-the-fly formatting. Chordie does not index songs against artists'/composers' will. To remove this song please click here.

This song is displayed as text-only. Transposing and tuning is only available for chordpro-songs.

Login - add to songbook

Rating click stars to rate

Layout
Accuracy

Jango Player

SHARE PAGE  




You need to log in to post comments