Chordie logo

Turn It On Again    Genesis



Genesis: Turn It On Again

Synth and guitar figures arranged for one guitar.


|----------------------------------|
|--------------2---------3---------|
|--------------1---------2---------|
|-4-4-4-4-...--3---------4---------|
|-2-2-2-2-...-(2)-------(2)--------|
|----------------------------------|

  *   .   .   .   *   .   .   .   *   .   .   .   *   .   .   *
|-------------------------------------------------------------|
|-0-2-0-4---4---2-----------------3-5-3-7---7---5---3---------|
|-1-2-1-4---4---3-----------------4-6-4-7---7---6---4---------|
|-2-2-2-4---4---4-----------------5-7-5-7---7---7---5---------|
|(2-2-2-2-...)------------------------------------------------|
|-------------------------------------------------------------|

  *   .   .   .   *   .   *   .   .   .   *   .   .   *
|-----------------------------------------------------|
|-0-2-0-4---4---2---------3-5-3-7---7---5---3---------|
|-1-2-1-4---4---3---------4-6-4-7---7---6---4---------|
|-2-2-2-4---4---4---------5-7-5-7---7---7---5---------|
|(2-2-.....)------------------------------------------|
|-----------------------------------------------------|

lead vocal enters:

  *   .   .   .   *   .   *   .   .   .   *   .   .   *
|-----------------------------------------------------|
|-0-2-0-4---4---2---------3-5-3-7---7---5---3---------|
|-1-2-1-4---4---3---------4-6-4-7---7---6---4---------|
|-2-2-2-4---4---4---------5-7-5-7---7---7---5---------|
|-----------------------------------------------------|
|-----------------------------------------------------|

  *   .   .   .   *   .   *   .   .   .   *   .   .   *
|-----------------------------------------------------|
|-0-2-0-4---4---2---------3-5-3-7---7---5---3-3-5-3-7-|
|-1-2-1-4---4---3---------4-6-4-7---7---6---4-4-6-4-7-|
|-2-2-2-4---4---4---------5-7-5-7---7---7---5-5-7-5-7-|
|-----------------------------------------------------|
|--------------------------------------------------(8)|

  *   .   .   .   *   .   .   .   *    .    .    .   *   .   .   .   *
|--------------------------------------------------------------------|
7-----7---7-5---7-----7---7-5-----10---10---10-8---3-----1---3-5---7-|
7-----7---7-5---7-----7---7-5-----10---10---10-7---3-----2---4-5---7-|
7-----7---7-5---7-----7---7-5-----10---10---10-9---3-----3---5-5---7-|
|--------------------------------------------------------------------|
|(8-8-8-8-...)-------------------------------------------------------|


  *   .   .   .   *   .   .   .   *    .    .    .   *   .   .   .   *
|--------------------------------------------------------------------|
7-----7---7-5---7-----7---7-5-----10---10---10-8---3-----1---3-5---4-|
7-----7---7-5---7-----7---7-5-----10---10---10-7---3-----2---4-5---4-|
7-----7---7-5---7-----7---7-5-----10---10---10-9---3-----3---5-5---4-|
|--------------------------------------------------------------------|
|--------------------------------------------------------------------|


  *   .   .   .   *   .   .   .   *   .   .   .   *   .   .   .   *   .   .   .   *
|---------------------------------------------------------------------------------|
4-----4---4-2---4-----4---4-2-----------------2-4-----4---4-2---4-----4---4-2-----|
4-----4---4-2---4-----4---4-2-----2---1---2h4---4-----4---4-2---4-----4---4-2-----|
4-----4---4-2---4-----4---4-2-----4---4---4-----4-----4---4-2---4-----4---4-2-----|
|---------------------------------4---4---4------(2-2-2-2...)---------------------|
|--------------------------------(2-...)------------------------------------------|


  *   .   .   *   .   .   *   .   *   .   .   .   *   .   .   .   *
|-----------------------------------------------------------------|
|-8---7-8-7---8---7-8-7---8---7-8-7---7---7-5---7-----7---7-5-----|
|-7---7-7-7---7---7-7-7---7---7-7-7---7---7-5---7-----7---7-5-----|
|-9---7-9-7---9---7-9-7---9---7-9-7---7---7-5---7-----7---7-5-----|
|-----------------------------------------------------------------|
|----------(0)---------(0)-------(8-8-8-8-...)--------------------|


  *   .   .   *   .   .   *   .   .   *   .   .   .    *
|------------------------------------------------------|

|-8---7-8-7---8---7-8-7---8---7-8-7---8---8---10--10-7-|
|-7---7-7-7---7---7-7-7---7---7-7-7---7---7---9---9--8-|
|-9---7-9-7---9---7-9-7---9---7-9-7---9---9---11--11-9-|
|------------------------------------------(0)---------|
|----------(0)---------(0)---------(0)--------------(7)|


synth:
  *   .   .   *   .   .   *   .   .   *   .   .   .   *   .   .   .   *
|-7---5-7-5---10----------5---7-5-7---2-------------------------------|
|-7---5-7-5---10----------5---7-5-7---2---------------5---------------|
|-----------------------------------------------------6---------------|
|-----------------------------------------------------7---------------|
|---------------------------------------------------------------------|
|---------------------------------------------------------------------|
|(7)---------------------------------(2)------------------------------|




Important: The song above is NOT stored on the Chordie server. The original song is hosted at www.xguitar.com. Chordie works as a search engine and provides on-the-fly formatting. Chordie does not index songs against artists/composers will. To remove this song please click here.

This song is displayed as text-only. Transposing and tuning is only available for chordpro-songs.

Login - add to songbook

Rating click stars to rate

Layout
Accuracy

SHARE PAGE  



You need to log in to post comments