"yes"; ?> What Is Life by George Harrison - guitar chords, guitar tabs and lyrics - chordie

What Is Life

George Harrison


TablEdited by VIRVIR Afinaci?n : E A D G B E Tipo de comp?s: 4/4
| | | | | | | | | | |----------------|------------|----------------| |----------------|------------|----------------| |----------------|------------|----------------| |----------------|------------|----------------| |7-6-4-----6-4---|------------|-7-6-4---6-4----| |------7-------7-|--5---5--7--|-------7-----7--|
| | | | |---------------|----------------|-----------| |---------------|----------------|-----------| |---------- ----|----------------|-----------| |---------------|----------------|-----------| |---------4-----|-7-6-4---6-4----|-----------| |-5---5-7---7---|-------7-----7--|-5---5--7--|
| | | | | | |----------------|----------------|--------------|-----------| |----------------|----------------|--------------|-----------| |----------------|----------------|--------------|-----------| |----------------|----------------|--------------|-----------| |-7-6-4---6-4----|---------4---7--|-6-4---6-4----|-----------| |-------7-----7--|-5---5-7---7----|-----7-----7--|-5---5--7--|
| | | | | | |----------------|----------------|--------| |----------------|----------------|--------| |----------------|----------------|--------| |----------------|----------------|--------| |-7-6-4---6-4----|---------4---5--|-4-----2| |-------7-----7--|-5---5-7---7----|--------|
| |---------------|----------|--------------|----------| |---------------|----------|--------------|----------| |---------------|----------|--------------|----------| |------------2--|-2-----2--|-2------------|----------| |-2-2-----------|---2-2----|---4-2-----2--|-2-----2--| |---------------|----------|-------4-2----|---2-2----|
What I feel I can't say
|------------|--------------|------------|-----------------| |------------|--------------|------------|-----------------| |------------|--------------|------------|-----------------| |------------|-------2-3-4--|-4---2-3-4-5|-4----------2----| |-2---2-3-4--|-4---4--------|---4--------|-----------------| |---2--------|---4----------|------------|-----------------|
But my love is there for you anytime of day
|---------------------|----------|--------------|----------| |---------------------|----------|--------------|----------| |---------------------|----------|--------------|----------| |------------------2--|-2-----2--|-2------------|----------| |-5---------4----2----|---2-2----|---4-2-----2--|-2-----2--| |---------------------|----------|-------4-2----|---2-2----|
But if it's not love that you need
|------------|--------------|------------|------------|----------------| |------------|--------------|------------|------------|----------------| |------------|--------------|------------|------------|----------------| |------------|-------2-3-4--|-4---2-3-4-5|-4-----2----|----------------| |-2---2-3-4--|-4---4--------|---4--------|------------|-5----4----2----| |---2--------|---4----------|------------|------------|----------------|
Then I'll try my best to make everything succeed And tell me
| | | | | | |----------------|---------------|--------------|--------------| |----------------|---------------|--------------|--------------| |----------------|---------------|--------------|--------------| |----------------|---------------|--------------|--------------| |-7-6-4---6-4----|---------------|-6-4---6-4----|---------4----| |-------7-----7--|-5---5--7------|-----7-----7--|-5-5-5-7---7--|
What is my life without your love? And tell me
| | | | | | |----------------|---------------|--------------|----------------| |----------------|---------------|--------------|----------------| |----------------|---------------|--------------|----------------| |----------------|---------------|--------------|----------------| |-7-6-4---6-4----|-------------7-|-6-4---6-4----|---------4---5__| |-------7-----7--|-5---5--7------|-----7-----7--|-5-5-5-7---7----|
Who am I without you By my side | |------------------|----------|--------------|----------| |------------------|----------|--------------|----------| |------------------|----------|--------------|----------| |---------------2--|-2-----2--|-2------------|----------| |5p--4---2---------|---2-2----|---4-2------2-|-2-----2--| |------------------|----------|-------4-2----|---2-2----|
What I know I can do
|------------|--------------|------------|-----------------| |------------|--------------|------------|-----------------| |------------|--------------|------------|-----------------| |------------|-------2-3-4--|-4---2-3-4-5|-4----------2----| |-2---2-3-4--|-4---4--------|---4--------|-----------------| |---2--------|---4----------|------------|-----------------|
If I give my love to everyone like you
|---------------------|----------|--------------|----------| |---------------------|----------|--------------|----------| |---------------------|----------|--------------|----------| |------------------2--|-2-----2--|-2------------|----------| |-5---------4----2----|---2-2----|---4-2-----2--|-2-----2--| |---------------------|----------|-------4-2----|---2-2----|
But if it's not love that you need
|------------|--------------|------------|------------|----------------| |------------|--------------|------------|------------|----------------| |------------|--------------|------------|------------|----------------| |------------|-------2-3-4--|-4---2-3-4-5|-4-----2----|----------------| |-2---2-3-4--|-4---4--------|---4--------|------------|-5----4----2----| |---2--------|---4----------|------------|------------|----------------|
Then I'll try my best to make everything succeed And tell me
| | | | | | |----------------|---------------|--------------|--------------| |----------------|---------------|--------------|--------------| |----------------|---------------|--------------|--------------| |----------------|---------------|--------------|--------------| |-7-6-4---6-4----|---------------|-6-4---6-4----|---------4----| |-------7-----7--|-5---5--7------|-----7-----7--|-5-5-5-7---7--|
What is my life without your love? And tell me
| | | | | | |----------------|----------------|--------------|----------------| |----------------|----------------|--------------|----------------| |----------------|----------------|--------------|----------------|
|----------------|----------------|--------------|----------------| |-7-6-4---6-4----|---------4---7--|-6-4---6-4----|---------4---5__| |-------7-----7--|-5-5-5-7---7----|-----7-----7--|-5-5-5-7---7----|
Who am I without you By my side
| | | | | | |----------|----------------|---------------|--------------| |----------|----------------|---------------|--------------| |----------|----------------|---------------|--------------| |----------|----------------|---------------|--------------| |5p--4---2-|-7-6-4---6-4----|-------------7-|-6-4---6-4----| |----------|-------7-----7--|-5---5--7------|-----7-----7--|
And tell me what is my life without your love?
| | | | | | |--------------|----------------|---------------|--------------| |--------------|----------------|---------------|--------------| |--------------|----------------|---------------|--------------| |--------------|----------------|---------------|--------------| |---------4----|-7-6-4---6-4----|-------------7-|-6-4---6-4----| |-5-5-5-7---7--|-------7-----7--|-5---5--7------|-----7-----7--|
And tell me Who am I without you
| | | | | | | | | |----------------|----------|----------------|------------| |----------------|----------|----------------|------------| |----------------|----------|----------------|------------| |----------------|----------|----------------|------------| |---------4---5__|-2-2-2----|7-6-4-----6-4---|------------| |-5-5-5-7---7----|----------|------7-------7-|--5---5--7--|
By my side (= Intro)
| | | | | | |----------------|----------------|--------------|-----------| |----------------|----------------|--------------|-----------| |----------------|----------------|--------------|-----------| |----------------|----------------|--------------|-----------| |-7-6-4---6-4----|---------4---7--|-6-4---6-4----|-----------| |-------7-----7--|-5---5-7---7----|-----7-----7--|-5---5--7--|
| | | | | | |----------------|----------------|--------------|-----------| |----------------|----------------|--------------|-----------| |----------------|----------------|--------------|-----------| |----------------|----------------|--------------|-----------| |-7-6-4---6-4----|---------4---7--|-6-4---6-4----|-----------| |-------7-----7--|-5---5-7---7----|-----7-----7--|-5---5--7--|
| | | | | | |----------------|----------------|--------| |----------------|----------------|--------| |----------------|----------------|--------| |----------------|----------------|--------| |-7-6-4---6-4----|---------4---5--|-4-----2| |-------7-----7--|-5---5-7---7----|--------|
| |---------------|----------|--------------|----------| |---------------|----------|--------------|----------| |---------------|----------|--------------|----------| |------------2--|-2-----2--|-2------------|----------| |-2-2-----------|---2-2----|---4-2-----2--|-2-----2--| |---------------|----------|-------4-2----|---2-2----|
What I feel I can't say
|------------|--------------|------------|-----------------| |------------|--------------|------------|-----------------| |------------|--------------|------------|-----------------| |------------|-------2-3-4--|-4---2-3-4-5|-4----------2----| |-2---2-3-4--|-4---4--------|---4--------|-----------------| |---2--------|---4----------|------------|-----------------|
But my love is there for you anytime of day
|---------------------|----------|--------------|----------| |---------------------|----------|--------------|----------| |---------------------|----------|--------------|----------| |------------------2--|-2-----2--|-2------------|----------| |-5---------4----2----|---2-2----|---4-2-----2--|-2-----2--| |---------------------|----------|-------4-2----|---2-2----|
But if it's not love that you need
|------------|--------------|------------|------------|----------------| |------------|--------------|------------|------------|----------------| |------------|--------------|------------|------------|----------------| |------------|-------2-3-4--|-4---2-3-4-5|-4-----2----|----------------| |-2---2-3-4--|-4---4--------|---4--------|------------|-5----4----2----| |---2--------|---4----------|------------|------------|----------------|
Then I'll try my best to make everything succeed And tell me
| | | | | | |----------------|---------------|--------------|--------------| |----------------|---------------|--------------|--------------| |----------------|---------------|--------------|--------------| |----------------|---------------|--------------|--------------| |-7-6-4---6-4----|---------------|-6-4---6-4----|---------4----| |-------7-----7--|-5---5--7------|-----7-----7--|-5-5-5-7---7--|
What is my life without your love? And tell me
| | | | | | |----------------|---------------|--------------|----------------| |----------------|---------------|--------------|----------------| |----------------|---------------|--------------|----------------| |----------------|---------------|--------------|----------------| |-7-6-4---6-4----|-------------7-|-6-4---6-4----|---------4---5__| |-------7-----7--|-5---5--7------|-----7-----7--|-5-5-5-7---7----|
Who am I without you By my side
| | | | | | |----------|----------------|---------------|--------------| |----------|----------------|---------------|--------------| |----------|----------------|---------------|--------------| |----------|----------------|---------------|--------------| |5p--4---2-|-7-6-4---6-4----|-------------7-|-6-4---6-4----| |----------|-------7-----7--|-5---5--7------|-----7-----7--|
And tell me what is my life without your love?
| | | | | | |--------------|----------------|---------------|--------------| |--------------|----------------|---------------|--------------| |--------------|----------------|---------------|--------------| |--------------|----------------|---------------|--------------| |---------4----|-7-6-4---6-4----|-------------7-|-6-4---6-4----| |-5-5-5-7---7--|-------7-----7--|-5---5--7------|-----7-----7--|
And tell me Who am I without you
| | | | | | | | | |----------------| |----------------| |----------------| |----------------| |---------4---5__| |-5-5-5-7---7----|
By my side (fade out)
Created with TablEdit http://www.tabledit.com/

variations - click chord images
Transpose chords:
Tuning:
Cool service:
View: Size:
A  A  A
Rating:
Layout:
  • Currently 0/5 Stars.
  • 1
  • 2
  • 3
  • 4
  • 5
 
Accuracy:
  • Currently 2.1/5 Stars.
  • 1
  • 2
  • 3
  • 4
  • 5
 
click stars to rate
Chordie recommends:
Learn to play guitar with video-based, online guitar lessons at JamPlay.com
Songbook:
Login to add this song to your songbook
Support the artist
Preview/buy this song
MSN Music
Why this non-profit ad?

 
login to add comments/video/corrections