Guitar Tabs, Chords and Lyrics


Radio Cambodia    Glassjaw



Radio Cambodia
Glassjaw
Workship and Tribute
tabbed by crazytom
deathtone@wanadoo.fr

Verse:
gtr1:
-----------------------------
---13--12--------13--12------
-----------12-----------12---
-----------------------------
-----------------------------
-----------------------------

gtr2:
---------------------------------------------------------------------------
---------------------------------------------------------------------------
---8-8-8-8-8-8-8-8---------------------9-9-9-9-9-9-9-9---8-8-8-8-8-8-8-8---
---8-8-8-8-8-8-8-8---9-9-9-9-9-9-9-9---9-9-9-9-9-9-9-9---8-8-8-8-8-8-8-8---
---6-6-6-6-6-6-6-6---9-9-9-9-9-9-9-9---7-7-7-7-7-7-7-7---6-6-6-6-6-6-6-6---
---------------------7-7-7-7-7-7-7-7---------------------------------------

Chorus:
gtr1:
------------------------------------
------------------------------------
------------------------------------
---11p9-11--9-11----11p9-11--9-11---
------------------------------------
------------------------------------

gtr2:
-------12-13-12------15p13p12-13-12-
---10-------------10----------------
------------------------------------
------------------------------------
------------------------------------
------------------------------------

Bridge:
gtr 1 and 2:      then, gtr2:     gtr1:
-----------------|---------------|---------------
-----------------|---------------|---------------
-----------------|---------------|---8---4-------
------6----8-----|-----6----8----|---8---4---4---
------6----8-----|-----6----8----|---6---2---4---
------4----6-----|-----4----6----|-----------2---
                    x3           x1
---------------|-----------|-----------
---------------|-----------|-----------
---8-x-8-x-8---|-------8---|-------9---
---------------|---6-6-8---|---6-6-9---
---6-x-6-x-6---|---6-6-6---|---6-6-7---
---------------|---4-4-----|---4-4-----

Solo:
gtr2 plays verse

gtr1:
-------------------------------------------------------------------
---12--11-12-11-12--11-12--11-12-11-12------13-12-13-12-13-12-13---
-------------------------------------------------------------------
-------------------------------------------------------------------
-------------------------------------------------------------------


Important: The song above is NOT stored on the Chordie server. The original song is hosted at www.xguitar.com. Chordie works as a search engine and provides on-the-fly formatting. Chordie does not index songs against artists'/composers' will. To remove this song please click here.

This song is displayed as text-only. Transposing and tuning is only available for chordpro-songs.

Login - add to songbook

Rating click stars to rate

Layout
Accuracy

SHARE PAGE  




You need to log in to post comments