Guitar Tabs, Chords and Lyrics


A**hole T.V.    Gob



Song: Asshole T.V
Band: Gob
Tabbed by: Mit (send_in_the_klowns@hotmail.com)



intro/verses:
e-|---------------------------
B-|---------------------------
G-|----4--5-------------------
D-|-2--4--5--5----------------
A-|-2--2--3--5----------------
E-|-0--------3----------------

guitar two (only for intro part):

e-|-3-2-3-2-5-3-5-3-

chorus:
e-|----------------------------
B-|----------------------------
G-|----5----------------5--4---
D-|-7--5--5----------7--5--4---
A-|-7--3--5----------7--3--2---
E-|-5-----3----------5---------


Important: The song above is NOT stored on the Chordie server. The original song is hosted at www.xguitar.com. Chordie works as a search engine and provides on-the-fly formatting. Chordie does not index songs against artists'/composers' will. To remove this song please click here.

This song is displayed as text-only. Transposing and tuning is only available for chordpro-songs.

Login - add to songbook

Rating click stars to rate

Layout
Accuracy

SHARE PAGE  




You need to log in to post comments