Chordie logo


Forgive Me   Godsmack



\"Forgive Me\"
Artist: Godsmack
Album: Awake
Tuning: (C,G,C,F,A,D)

INTRO:
|------------------1-0--|
|-----------------------|
|-----------------------|
|--0h2-222-0h2-222------|
|--0h2-222-0h2-222------|
|--0h2-222-0h2-222------|
PM     ...     ...

VERSE:
|------------------1-0-------------------|
|----------------------------------------|
|----------------------------------------|
|--0h2-222-0h2-222------0h2-222-0h2-222--|
|--0h2-222-0h2-222------0h2-222-0h2-222--|
|--0h2-222-0h2-222------0h2-222-0h2-222--|
PM     ...     ...          ...     ...

CHORUS:
|----------------------------------------|
|----------------------------------------|
|-----8-8-7--------------8-8-7-----------|
|--0--8-8-7--0000333--0--8-8-7--2222333--|
|--0--6-6-5--0000333--0--6-6-5--2222333--|
|--0---------0000333--0---------2222333--|
PM           .......            ......

CHORUS B:
|------------------------|
|------------------------|
|-----10-10-9------------|
|--2--10-10-9--22225555--|
|--2---8--8-7--22225555--|
|--2-----------22225555--|
PM             ........

INTERLUDE:
|------------------------------------|
|------------------------------------|
|--8---------------8-----------------|
|--8-00-6-0-0-3-0--8-00-6-0-0-1-3-0--|
|--6-00-6-0-0-3-0--6-00-6-0-0-1-3-0--|
|----00-6-0-0-3-0----00-6-0-0-1-3-0--|

INTERLUDE B: (palm mute)
|-----------------------|
|-----------------------|
|-----------------------|
|-----------------------|
|--1313130006660003300--|


Important: The song above is NOT stored on the Chordie server. The original song is hosted at www.xguitar.com. Chordie works as a search engine and provides on-the-fly formatting. Chordie does not index songs against artists/composers will. To remove this song please click here.

This song is displayed as text-only. Transposing and tuning is only available for chordpro-songs.

Login - add to songbook

Rating click stars to rate

Layout
Accuracy

SHARE PAGE  




You need to log in to post comments