Guitar Tabs, Chords and Lyrics


Faceless   Godsmack



Artist: Godsmack
Song: Faceless (track 2)
Album: Faceless
Tuning: Drop-D (D A D G B E)

	This is a pretty easy song once you get the rythmn down. You can play this song in either Drop-D or Drop-C, just remember to articulate the differences. Later.


* = palm mute

INTRO:
------------------------------|------------------------------------------------
------4-------4-----4---------|------------------------------------------------
------3-------3-----3---------|------------------------------------------------
--------------------------x3--|----3-1-0-1-0-1-3-------------------------------
--00-----00-----0-------------|----3-1-0-1-0-1-3-------------------------------
--00-----00-----0-------------|----3-1-0-1-0-1-3-------------------------------
      ^wah    ^wah  ^wah

-------------------------------------------------------------------------------
-------------------------------------------------------------------------------
-------------------------------------------------------------------------------
-00-1-00-1-0-1--00-1-00-1-0-1--00-1-00-1-0-1--0-3-1-0-1-0-1-3------------------
-00-1-00-1-0-1--00-1-00-1-0-1--00-1-00-1-0-1--0-3-1-0-1-0-1-3------------------
-00-1-00-1-0-1--00-1-00-1-0-1--00-1-00-1-0-1--0-3-1-0-1-0-1-3------------------

-------------------------------------------------------------------------------
-------------------------------------------------------------------------------
-------------------------------------------------------------------------------
-00-1-00-1-0-1--00-1-00-1-0-1--00-1-00-1-0-1----------3-1-0-1-0-1-3------------
-00-1-00-1-0-1--00-1-00-1-0-1--00-1-00-1-0-1----------3-1-0-1-0-1-3------------
-00-1-00-1-0-1--00-1-00-1-0-1--00-1-00-1-0-1----------3-1-0-1-0-1-3------------
						      ^with wah

VERSE:
-----------------|-------------
-----------4-4---|-------------
-----------3-3---|-------------
-----------------|-------------
-0-00-0-0--------|-0-3-0-1-----
-0-00-0-0--------|-0-3-0-1-----
 * ** * *

PRE-CHORUS:
-------------------------------------------------------------------------------
-------------------------------------------------------------------------------
-------------------------------------------------------------------------------
-7-777-77---9-999-99----33333333-----------------------------------------------
-5-555-55---7-777-77----33333333-----------------------------------------------
-5-555-55---7-777-77----33333333-----------------------------------------------
			********

CHORUS:
---------------------------------------------------------------------------------
---------------------------------------------------------------------------------
---------------------------------------------------------------------------------
-00-1-00-1-0-1--00-1-00-1-0-1--00-1-00-1-0-1---7-777-77---9-999-99--77777777-----
-00-1-00-1-0-1--00-1-00-1-0-1--00-1-00-1-0-1---5-555-55---7-777-77--77777777-----
-00-1-00-1-0-1--00-1-00-1-0-1--00-1-00-1-0-1---5-555-55---7-777-77--77777777-----

---------------------------------------------------------------------------------
---------------------------------------------------------------------------------
---------------------------------------------------------------------------------
-00-1-00-1-0-1--00-1-00-1-0-1--00-1-00-1-0-1---7-777-77---9-----3-1-0-1-0-1-3----
-00-1-00-1-0-1--00-1-00-1-0-1--00-1-00-1-0-1---5-555-55---7-----3-1-0-1-0-1-3----
-00-1-00-1-0-1--00-1-00-1-0-1--00-1-00-1-0-1---5-555-55---7-----3-1-0-1-0-1-3----


BRIDGE:
-------------
--3----------
--2----------
--0----------
--0----------
--0----------
  ^ LET RING






Important: The song above is NOT stored on the Chordie server. The original song is hosted at www.xguitar.com. Chordie works as a search engine and provides on-the-fly formatting. Chordie does not index songs against artists'/composers' will. To remove this song please click here.

This song is displayed as text-only. Transposing and tuning is only available for chordpro-songs.

Login - add to songbook

Rating click stars to rate

Layout
Accuracy

SHARE PAGE  




You need to log in to post comments