Guitar Tabs, Chords and Lyrics


I Am   Godsmack










Author/Artist: Godsmack
Title: I am
Album: Faceless
Transcribed by: Erich Wolf
Tunning: Drop C

( C G C F A D )


INTRO;
------------------------------------------------------------------------------
------------------------------------------------------------------------------
---------------10-----------------10---7--------------------------------------
--2-2-2-2-2----x-----2-2-2-2-2----x----x--------------------------------------
--2-2-2-2-2----8-----2-2-2-2-2----8----5--------------------------------------
--2-2-2-2-2----------2-2-2-2-2------------------------------------------------
  ---P.M---          ---P.M---


VERSE:
------------------------------------------------------------------------------
------------------------------------------------------------------------------
---------------10-----------------10---7--------------------------------------
--2-2-2-2-2----10----2-2-2-2-2----10---7--------------------------------------
--2-2-2-2-2----8-----2-2-2-2-2----8----5--------------------------------------
--2-2-2-2-2----------2-2-2-2-2------------------------------------------------
  ---P.M---          ---P.M---


PRE-CHORUS:
------------------------------------------------------------------------------
------------------------------------------------------------------------------
------------------------------------------------------------------------------
--7-7-7-7-7---8-8-8-8-8---5-5-5-5----------7-7-7-7-7-7-7---10-10-10-10---7-7--
--7-7-7-7-7---8-8-8-8-8---5-5-5-5--x-------7-7-7-7-7-7-7---10-10-10-10---7-7--
--7-7-7-7-7---8-8-8-8-8---5-5-5-5----------7-7-7-7-7-7-7---10-10-10-10---7-7--
  Strumming is not exact. Listen for exact signature.


CHORUS:
------------------------------------------------------------------------------
------------------------------------------------------------------------------
------------------------------------------------------------------------------
--2-2-2-2-2---3-3-3--0-----2-2-2-2-2--2-3-3-5--3----2-2-2-2-2--3-0--5-5--3-3--
--2-2-2-2-2---3-3-3--0-----2-2-2-2-2--2-3-3-5--3----2-2-2-2-2--3-0--5-5--3-3--
--2-2-2-2-2---3-3-3--0-----2-2-2-2-2--2-3-3-5--3----2-2-2-2-2--3-0--5-5--3-3--
  Strumming is not exact. Listen for exact signature.


BRIDGE:
------------------------------------------------------------------------------
------------------------------------------------------------------------------
------------------------------------------------------------------------------
--2-2-2-2-2-2-2-2-2----8---------7-8-7-8-7---5--------------------------------
--2-2-2-2-2-2-2-2-2----8--x------7-8-7-8-7---5--------------------------------
--2-2-2-2-2-2-2-2-2----8---------7-8-7-8-7---5--------------------------------
  -------P.M-------


ENDING:
------------------------------------------------------------------------------
------------------------------------------------------------------------------
----------------------------------10----7--7--7-------------------------------
--2-2-2-2-2-2-2-2-2----8----------x-----x--x--x-------------------------------
--2-2-2-2-2-2-2-2-2----8--x-------8-----5--5--5-------------------------------
--2-2-2-2-2-2-2-2-2----8------------------------------------------------------
  -------P.M-------



this song is pretty accurate!
this is a great song off of godsmacks new album.
the new album is awesome. go out and get it.


Important: The song above is NOT stored on the Chordie server. The original song is hosted at www.xguitar.com. Chordie works as a search engine and provides on-the-fly formatting. Chordie does not index songs against artists'/composers' will. To remove this song please click here.

This song is displayed as text-only. Transposing and tuning is only available for chordpro-songs.

Login - add to songbook

Rating click stars to rate

Layout
Accuracy

SHARE PAGE  




You need to log in to post comments