Chordie logo


I Stand Alone   Godsmack



Riff
D|-----------------------------------------
A|-----------------------------------------
F|-----------------------------------------
C|-----------------------------------------
G|-----------------------------------------
C|000-77-00-88-00-88---000-77-00-88-00-88--
The whole song is in drop c tuning

Chorus
D|-------------------------------------------------------------------------
A|-------------------------------------------------------------------------
F|-------------------------------------------------------------------------
C|-------------------------------------------------------------------------
G|00-xx-00-xx-666---00-xx-00-xx-5-33----00-xx-00-xx-666---00-xx-00-xxxxx---
C|00-xx-00-xx-666---00-xx-00-xx-5-33----00-xx-00-xx-666---00-xx-00-xxxxx---

D|-------------------------------------------------------------------------
A|-------------------------------------------------------------------------
F|--------------------------------------------------------------------5----
C|--------------------------------------------------------------------5----
G|00-xx-00-xx-666---00-xx-00-xx-5-33----00-xx-00-xx-666---00-xx-00-xx-5----
C|00-xx-00-xx-666---00-xx-00-xx-5-33----00-xx-00-xx-666---00-xx-00-xx-3----

Break
D|-------------------
A|-------------------
F|-------------------
C|66666666-88888888--
G|66666666-88888888--


Important: The song above is NOT stored on the Chordie server. The original song is hosted at www.xguitar.com. Chordie works as a search engine and provides on-the-fly formatting. Chordie does not index songs against artists/composers will. To remove this song please click here.

This song is displayed as text-only. Transposing and tuning is only available for chordpro-songs.

Login - add to songbook

Rating click stars to rate

Layout
Accuracy

SHARE PAGE  




You need to log in to post comments