Guitar Tabs, Chords and Lyrics


Now Or Never   Godsmack



                             Now or Never Tabs

        o Guitar tabs
        o Bass tabs

  ------------------------------------------------------------------------
                                Guitar Tabs

Transcribed by Chris Brandt (Rugged567@hotmail.com ). Visit his website at
http://come.to/GodsmackPit

Dropped D tuning

x=muting

**Do not get this guitar tab confused with the bass...the
bass sounds the same but you can tell the guitar and bass apartbecause the guitar has heavy distortion.

E|------------------------------|
B|------------------------------|
G|------------------------------|
D|--00-03-0000-67--00-03-0000-8-|
A|--00-03-0000-67--00-03-0000-6-|
D|--00-03-0000-67--00-03-0000---|

E|---------------------------------|
B|---------------------------------|
G|---------------------------------|
D|--00-03-0000-67--00-03-0000------|
A|--00-03-0000-67--00-03-0000-6666-|
D|--00-03-0000-67--00-03-0000------|

E|------------------------------|
B|------------------------------|
G|------------------------------|
D|--00-03-0000-67--00-03-0000-8-|
A|--00-03-0000-67--00-03-0000-6-|
D|--00-03-0000-67--00-03-0000---|

E|------------------------------|
B|------------------------------|
G|------------------------------|
D|--00-03-0000-67--00-03-0000-8-|
A|--00-03-0000-67--00-03-0000-6-|
D|--00-03-0000-67--00-03-0000---|

E|--------------------------------------|
B|--------------------------------------|
G|--------------------------------------|
D|-x-xx------x-x-x-x-x--x-xx-----xx-x-8-|
A|-x-xx-5-6--x-x-x-x-x--x-xx-5-6-xx-x-6-|
D|-x-xx------x-x-x-x-x--x-xx-----xx-x---|

E|--------------------------------------|
B|--------------------------------------|
G|--------------------------------------|
D|-x-xx------x-x-x-x-x--x-xx-----xx-x-8-|
A|-x-xx-5-6--x-x-x-x-x--x-xx-5-6-xx-x-6-|
D|-x-xx------x-x-x-x-x--x-xx-----xx-x---|

E|--------------------------------------|
B|--------------------------------------|
G|--------------------------------------|
D|-x-xx------x-x-x-x-x--x-xx-----xx-x-8-|
A|-x-xx-5-6--x-x-x-x-x--x-xx-5-6-xx-x-6-|
D|-x-xx------x-x-x-x-x--x-xx-----xx-x---|

E|--------------------------------------|
B|--------------------------------------|
G|--------------------------------------|
D|-x-xx------x-x-x-x-x--x-xx-----xx-x-8-|
A|-x-xx-5-6--x-x-x-x-x--x-xx-5-6-xx-x-6-|
D|-x-xx------x-x-x-x-x--x-xx-----xx-x---|

E|------------------------------|
B|------------------------------|
G|------------------------------|
D|--00-03-0000-67--00-03-0000-8-|
A|--00-03-0000-67--00-03-0000-6-|
D|--00-03-0000-67--00-03-0000---|

E|------------------------------|
B|------------------------------|
G|------------------------------|
D|--00-03-0000-67--00-03-0000-8-|
A|--00-03-0000-67--00-03-0000-6-|
D|--00-03-0000-67--00-03-0000---|

E|--------------------------------------|
B|--------------------------------------|
G|--------------------------------------|
D|-x-xx------x-x-x-x-x--x-xx-----xx-x-8-|
A|-x-xx-5-6--x-x-x-x-x--x-xx-5-6-xx-x-6-|
D|-x-xx------x-x-x-x-x--x-xx-----xx-x---|

E|--------------------------------------|
B|--------------------------------------|
G|--------------------------------------|
D|-x-xx------x-x-x-x-x--x-xx-----xx-x-8-|
A|-x-xx-5-6--x-x-x-x-x--x-xx-5-6-xx-x-6-|
D|-x-xx------x-x-x-x-x--x-xx-----xx-x---|

E|--------------------------------------|
B|--------------------------------------|
G|--------------------------------------|
D|-x-xx------x-x-x-x-x--x-xx-----xx-x-8-|
A|-x-xx-5-6--x-x-x-x-x--x-xx-5-6-xx-x-6-|
D|-x-xx------x-x-x-x-x--x-xx-----xx-x---|

E|--------------------------------------|
B|--------------------------------------|
G|--------------------------------------|
D|-x-xx------x-x-x-x-x--x-xx-----xx-x-8-|
A|-x-xx-5-6--x-x-x-x-x--x-xx-5-6-xx-x-6-|
D|-x-xx------x-x-x-x-x--x-xx-----xx-x---|

E|---------------------------------|
B|---------------------------------|
G|---------------------------------|
D|--3-00-03-0000-67--00-03-0000-67-|
A|--3-00-03-0000-67--00-03-0000-67-|
D|--3-00-03-0000-67--00-03-0000-67-|

E|---------------------------------|
B|---------------------------------|
G|---------------------------------|
D|--3-00-03-0000-67--00-03-0000-67-|
A|--3-00-03-0000-67--00-03-0000-67-|
D|--3-00-03-0000-67--00-03-0000-67-|

E|--------|
B|--------|
G|--------|
D|--3-----|
A|--3-4-3-|
D|--3-----|

E|--------|
B|--------|
G|--------|
D|--3-----|
A|--3-4-3-|
D|--3-----|

E|------------------------------|
B|------------------------------|
G|------------------------------|
D|--00-03-0000-67--00-03-0000-8-|
A|--00-03-0000-67--00-03-0000-6-|
D|--00-03-0000-67--00-03-0000---|

E|------------------------------|
B|------------------------------|
G|------------------------------|
D|--00-03-0000-67--00-03-0000-8-|
A|--00-03-0000-67--00-03-0000-6-|
D|--00-03-0000-67--00-03-0000---|

E|--------------------------------------|
B|--------------------------------------|
G|--------------------------------------|
D|-x-xx------x-x-x-x-x--x-xx-----xx-x-8-|
A|-x-xx-5-6--x-x-x-x-x--x-xx-5-6-xx-x-6-|
D|-x-xx------x-x-x-x-x--x-xx-----xx-x---|

E|--------------------------------------|
B|--------------------------------------|
G|--------------------------------------|
D|-x-xx------x-x-x-x-x--x-xx-----xx-x-8-|
A|-x-xx-5-6--x-x-x-x-x--x-xx-5-6-xx-x-6-|
D|-x-xx------x-x-x-x-x--x-xx-----xx-x---|

E|--------------------------------------|
B|--------------------------------------|
G|--------------------------------------|
D|-x-xx------x-x-x-x-x--x-xx-----xx-x-8-|
A|-x-xx-5-6--x-x-x-x-x--x-xx-5-6-xx-x-6-|
D|-x-xx------x-x-x-x-x--x-xx-----xx-x---|

E|--------------------------------------|
B|--------------------------------------|
G|--------------------------------------|
D|-x-xx------x-x-x-x-x--x-xx-----xx-x-8-|
A|-x-xx-5-6--x-x-x-x-x--x-xx-5-6-xx-x-6-|
D|-x-xx------x-x-x-x-x--x-xx-----xx-x---|

E|---------------------------------|
B|---------------------------------|
G|---------------------------------|
D|--3-00-03-0000-67--00-03-0000-67-|
A|--3-00-03-0000-67--00-03-0000-67-|
D|--3-00-03-0000-67--00-03-0000-67-|

E|---------------------------------|
B|---------------------------------|
G|---------------------------------|
D|--3-00-03-0000-67--00-03-0000-67-|
A|--3-00-03-0000-67--00-03-0000-67-|
D|--3-00-03-0000-67--00-03-0000-67-|

E|---------------------------------|
B|---------------------------------|
G|---------------------------------|
D|--3-00-03-0000-67--00-03-0000-67-|
A|--3-00-03-0000-67--00-03-0000-67-|
D|--3-00-03-0000-67--00-03-0000-67-|

E|---------------------------------|
B|---------------------------------|
G|---------------------------------|
D|--3-00-03-0000-67--00-03-0000-67-|
A|--3-00-03-0000-67--00-03-0000-67-|
D|--3-00-03-0000-67--00-03-0000-67-|

E|--------|
B|--------|
G|--------|
D|--3-----|
A|--3-4-3-|
D|--3-----|

E|--------|
B|--------|
G|--------|
D|--3-----|
A|--3-4-3-|
D|--3-----|

E|--------|
B|--------|
G|--------|
D|--3-----|
A|--3-4-3-|
D|--3-----|

E|--------|
B|--------|
G|--------|
D|--3-----|
A|--3-4-3-|
D|--3-----|

solo that you can figure out yourself comes next...
then...

E|---------------------------------|
B|---------------------------------|
G|---------------------------------|
D|--3-00-03-0000-67--00-03-0000-67-|
A|--3-00-03-0000-67--00-03-0000-67-|
D|--3-00-03-0000-67--00-03-0000-67-|

E|---------------------------------|
B|---------------------------------|
G|---------------------------------|
D|--3-00-03-0000-67--00-03-0000-67-|
A|--3-00-03-0000-67--00-03-0000-67-|
D|--3-00-03-0000-67--00-03-0000-67-|

E|-------------------------------|
B|-------------------------------|
G|-------------------------------|
D|--00-03-0000-67--00-03-0000-67-|
A|--00-03-0000-67--00-03-0000-67-|
D|--00-03-0000-67--00-03-0000-67-|

...the end is just variations of parts from the begining.

                              back to the top
                           back to the tabs page
  ------------------------------------------------------------------------
                                 Bass Tabs

Transcribed by Jen (Andymac398@aol.com).

Here's the bass tab for Now Or Never, off of All Wound Up. This is my first
time figuring out a song, so bare with me. I got it by watching Robbie play
it at Warped Tour, so I'm %97 positive that it is right.

It's in dropped D tuning (low-high: D A D G)

h-hammer on

The intro, verse, and most of the song
G|-----------------------------------------|
D|-----------------------------------------|
A|--------8---------------------8------6-|
D|-0000--0000-6-7-0000--00-0---|

At certain points in the song you can hear this variation. (Sometimes when
the guitar is playing too)

A|--------7h8-------------------7h8--------6-|
D|-0000-----0000-6-7-000-------00-0---|

then the chorus part is

G|---------------|----------------|
D|---------------|----------7--5-|
A|-8------6-----|-5---0--------|
D|---------------|----------------|
(repeat ^ a couple of x)

                              back to the top
                           back to the tabs page
  ------------------------------------------------------------------------

             (C) 1998 Blast to the Moon... All rights reserved.


Important: The song above is NOT stored on the Chordie server. The original song is hosted at www.xguitar.com. Chordie works as a search engine and provides on-the-fly formatting. Chordie does not index songs against artists'/composers' will. To remove this song please click here.

This song is displayed as text-only. Transposing and tuning is only available for chordpro-songs.

Login - add to songbook

Rating click stars to rate

Layout
Accuracy

SHARE PAGE  




You need to log in to post comments