Guitar Tabs, Chords and Lyrics


Voodoo   Godsmack



                                     VOODOO
                             As recorded by Godsmack
                         (From the 1998 Album GODSMACK)

Words and Music by GodSmack
Transcribed by www.geocities.com/power_tab
http://ptbfiles.cjb.net

   Intro
                                 1.            2.
   4/4                                         5/4
    Gtr I
||----------|---------|---------|------------||-----|
||o---------|---------|---------|-----------o||-----|
||----------|---------|---------|------------||-----|
||----------|---------|---------|------------||-----|
||o---------|---------|---------|-----------o||-----|
||----------|---------|---------|------------||-----|
                     $
 4/4
|---------|----------||---------------|----------|--------------|-----------||
|---------|--------7-||o-(7)s8s7------|--------7-|-(7)s8s7------|--------7-o||
|---------|--------6-||--(6)s7s6------|--------6-|-(6)s7s6------|--------6--||
|---------|--------4-||--(4)s5s4------|--------4-|-(4)s5s4------|--------4--||
|---------|----------||o--------------|----------|--------------|----------o||
|---------|----------||---------------|----------|--------------|-----------||
   Verse
                                                        3x
||---------------|----------|--------------|------------||
||o-(7)s8s7------|--------7-|-(7)s8s7------|--------7--o||
||--(6)s7s6------|--------6-|-(6)s7s6------|--------6---||
||--(4)s5s4------|--------4-|-(4)s5s4------|--------4---||
||o--------------|----------|--------------|-----------o||
||---------------|----------|--------------|------------||
                           PM--------|
|-----------|---------|----------------|--------||
|-(7)s8s7---|---------|----------------|--------||
|-(6)s7s6---|---------|----------------|--------||
|-(4)s5s4---|---------|-2--2-2-2-2-2-2-|-2------||
|-----------|---------|-2--2-2-2-2-2-2-|-2------||
|-----------|---------|-0--0-0-0-0-0-0-|-0------||
 Chorus
  $$
|----------------|-----------------|------------------|---------------------|
|-7--7-7-7-7-7-5-|-(5)-5--7-7--7-7-|-5s7-7-7-7-7-7-10-|-(10)-10--9-9s10-9\--|
|-6--6-6-6-6-6-4-|-(4)-4--6-6--6-6-|-4s6-6-6-6-6-6--9-|--(9)--9--8-8s=9-8\--|
|-4--4-4-4-4-4-2-|-(2)-2--4-4--4-4-|-2s4-4-4-4-4-4--7-|--(7)--7--6-6s=7-8\--|
|----------------|-----------------|------------------|---------------------|
|----------------|-----------------|------------------|---------------------|
                             To Coda                         D.S. al Coda
                             To Coda
|-----------------|-----------------|-------------------|------------------||
|-5s7-7-7-7-7-7-5-|-(5)-5--7-7--7-7-|-5s7-7-7-(7)-7s5-5-|-(5)s7-7--(7)---7-||
|-4s6-6-6-6-6-6-4-|-(4)-4--6-6--6-6-|-4s6-6-6-(6)-6s4-4-|-(4)s6-6--(6)---6-||
|-2s4-4-4-4-4-4-2-|-(2)-2--4-4--4-4-|-2s4-4-4-(4)-4s2-2-|-(2)s4-4--(4)---4-||
|-----------------|-----------------|-------------------|------------------||
|-----------------|-----------------|-------------------|------------------||
  &
|-------------------|-----------------------|
|-5s7-7-7-(7)-7--10-|-(10)-10-10s9-9s11S9s5-|
|-4s6-6-6-(6)-6---9-|--(9)--9--9s8-8s=9S8s4-|
|-2s4-4-4-(4)-4---7-|--(7)--7--7s6-6s=7S6s2-|
|-------------------|-----------------------|
|-------------------|-----------------------|
|-----------------|-----------------|
|-5s7-7-7-7-7-7-5-|-(5)-5--7-7--7-7-|
|-4s6-6-6-6-6-6-4-|-(4)-4--6-6--6-6-|
|-2s4-4-4-4-4-4-2-|-(2)-2--4-4--4-4-|
|-----------------|-----------------|
|-----------------|-----------------|
|------------------|---------------------|-----------------|-----------------|
|-5s7-7-7-7-7-7-10-|-(10)-10--9-9s10-9\--|-5s7-7-7-7-7-7-5-|-(5)-5--7-7--7-7-|
|-4s6-6-6-6-6-6--9-|--(9)--9--8-8s=9-8\--|-4s6-6-6-6-6-6-4-|-(4)-4--6-6--6-6-|
|-2s4-4-4-4-4-4--7-|--(7)--7--6-6s=7-6\--|-2s4-4-4-4-4-4-2-|-(2)-2--4-4--4-4-|
|------------------|---------------------|-----------------|-----------------|
|------------------|---------------------|-----------------|-----------------|
                                          Interlude
|-------------------|------------------||---------------|
|-5s7-7-7-(7)-7s5-5-|-(5)s7-7--7-7-7-7-||o-(7)s8s7------|
|-4s6-6-6-(6)-6s4-4-|-(4)s6-6--6-6-6-6-||--(6)s7s6------|
|-2s4-4-4-(4)-4s2-2-|-(2)s4-4--4-4-4-4-||--(4)s5s4------|
|-------------------|------------------||o--------------|
|-------------------|------------------||---------------|
                           1.           2.
|----------|--------------|-----------||-----|
|--------7-|-(7)s8s7------|--------7-o||-----|
|--------6-|-(6)s7s6------|--------6--||-----|
|--------4-|-(4)s5s4------|--------4--||-----|
|----------|--------------|----------o||-----|
|----------|--------------|-----------||-----|
||----------------|------------------|--------------|------||
||o---------------|----------------7-|-(7)s8s7------|-----o||
||----------------|----------------6-|-(6)s7s6------|------||
||--2--2--2-2-2-2-|-(2)-2-2--(2)---4-|-(4)s5s4------|------||
||o-2--2--2-2-2-2-|-(2)-2-2--(2)-----|--------------|-----o||
||--0--0--0-0-0-0-|-(0)-0-0--(0)-----|--------------|------||
             D.S.S. al Dbl. Coda
|---------------|----------------||
|---------------|----------------||
|---------------|-9-9-9--(9)\----||
|-2--2--2-2-2-2-|-9-9-9--(9)\----||
|-2--2--2-2-2-2-|-9-9-9--(9)\----||
|-0--0--0-0-0-0-|-7-7-7--(7)\----||
  &&
|-----------------|---------------------------|
|-5s7-7-7-7-7--10-|-(10)-10--10s9-9s10-9s5----|
|-4s6-6-6-6-6---9-|--(9)--9---9s8-8s=9-8s4----|
|-2s4-4-4-4-4---7-|--(7)--7---7s6-6s=7-6s2----|
|-----------------|---------------------------|
|-----------------|---------------------------|
|------------------|-----------------|
|-5s7-7-7-7--7-7-5-|-(5)-5--7-7--7-7-|
|-4s6-6-6-6--6-6-4-|-(4)-4--6-6--6-6-|
|-2s4-4-4-4--4-4-2-|-(2)-2--4-4--4-4-|
|------------------|-----------------|
|------------------|-----------------|
|------------------|--------------------------|
|-5s7-7-7-7-7-7-10-|-(10)-10-10s9-9s10-9s5----|
|-4s6-6-6-6-6-6--9-|--(9)--9--9s8-8s=9-8s4----|
|-2s4-4-4-4-4-4--7-|--(7)--7--7s6-6s=7-6s2----|
|------------------|--------------------------|
|------------------|--------------------------|
|-----------------|-----------------|-------------------|----------------|
|-5s7-7-7-7-7-7-5-|-(5)-5--7-7--7-7-|-5s7-7-7-(7)-7s5-5-|-(5)s7-7--7---7-|
|-4s6-6-6-6-6-6-4-|-(4)-4--6-6--6-6-|-4s6-6-6-(6)-6s4-4-|-(4)s6-6--6---6-|
|-2s4-4-4-4-4-4-2-|-(2)-2--4-4--4-4-|-2s4-4-4-(4)-4s2-2-|-(2)s4-4--4---4-|
|-----------------|-----------------|-------------------|----------------|
|-----------------|-----------------|-------------------|----------------|
   Outro
                             1.,2.,3.                    4.
||---------------|----------|--------------|-----------||--------------|-----*|
||o-(7)s8s7------|--------7-|-(7)s8s7------|--------7-o||-(7)s8s7------|-----*|
||--(6)s7s6------|--------6-|-(6)s7s6------|--------6--||-(6)s7s6------|-----*|
||--(4)s5s4------|--------4-|-(4)s5s4------|--------4--||-(4)s5s4------|-----*|
||o--------------|----------|--------------|----------o||--------------|-----*|


Important: The song above is NOT stored on the Chordie server. The original song is hosted at www.xguitar.com. Chordie works as a search engine and provides on-the-fly formatting. Chordie does not index songs against artists/composers will. To remove this song please click here.

This song is displayed as text-only. Transposing and tuning is only available for chordpro-songs.

Login - add to songbook

Rating click stars to rate

Layout
Accuracy

SHARE PAGE  




You need to log in to post comments