Guitar Tabs, Chords and Lyrics


Answers  Goldfinger



E--------------------------		E--5

B-------------------------- B--6
G---------3-2-------------0 G--7
D--0--3-0------0-----0--3-- D---
A----------------1-0------- A---
E-------------------------- E---
E------------------------------------------ ----3----
B------------------------------------------ ------3--
G---------2-0-----------------2-0-----3-2-- 0-------3
D--0--2-3-----3-2-0-2--0--2-3-----3-2------ ---------
A------------------------------------------ ---------
E------------------------------------------ ---------
   [Dm]    [Am]    [Dm]    [Gm]                      
E--5---5---5---3
B--6---5---6---3
G--7---5---7---3
D---------------
A---------------
E---------------


VERSE 2 "But when I..."

   [C]     [Dm]     [A#]     [Am]                   
E--3----5----6----5
B--5----6----6----5
G--5----7----7----5
D--5----7----8----7
A--3----5----8----7
E------------6----5


CHORUS (4x) "You tell me..."

   [Dm]    [Am]    [Dm]    [Gm]           [Gm]           
E--5---5---5---3	--3--3----
B--6---5---6---3	--3----3--
G--7---5---7---3	--3------3
D---------------	--5-------
A---------------	--5-------
E---------------	--3-------


DURING THE HORNS

Dm, Gm upbeats

CHORUS (2x) moves up a whole step

   [Em]    [Am]    [Em]    [Gm]                      
E--7---7---7---5
B--8---7---8---5
G--9---7---9---5
D---------------
A---------------
E---------------


Ends on Em

Important: The song above is NOT stored on the Chordie server. The original song is hosted at www.xguitar.com. Chordie works as a search engine and provides on-the-fly formatting. Chordie does not index songs against artists'/composers' will. To remove this song please click here.

Text color:
Chord color:
Chord grids: 
Font size:    
Page size: 

A# Am C Dm Em Gm
variations - click chord images

Login - add to songbook

Transpose chords

Tuning

Rating click stars to rate

Layout
Accuracy

SHARE PAGE  




You need to log in to post comments