Happy

Goldfinger

 E5B5A5
e |--X--X-------------------------------------------------------|
B |--X--X-------------------------------------------------------|
G |--X--X--9-9-9-9-9-------------------13-14-14-14-13-13-13-13--| Play 2x
D |--X--X--9-9-9-9-9-----99---7-7---7---x--x--x--x--x--x--x--x--|
A |--X--X--7-7-7-7-7*----99---7-7---7--11-12-12-12-11-11-11-11--|
E |--X--X----------------77---5-5---5---------------------------|


The second time this top part is played, Guitar 2 comes in with this:

Guitar 2:
 E5
e |-------------------------------------------------------------|
B |-------------------------------------------------------------|
G |--------9-9-9------------------------pick slide------------->|
D |--------9-9-9------------------------------------------------|
A |--------7-7-7*-----------------------------------------------|
E |-------------------------------------------------------------|


 E5B5A5
e |-------------------------------------------------------------|
B |-------------------------------------------------------------|
G |--9-9-9-9--9-------------------14-14-14-14-13-13-13-13-------|
D |--9-9-9-9--9-----99---7-7---7---x--x--x--x--x--x--x--x-------|
A |--7-7-7-7--7*----99---7-7---7--12-12-12-12-11-11-11-11-------|
E |-----------------77---5-5---5--------------------------------|

p.m.........

 E5B5D5
e |-------------------------------------------------------------|
B |-------------------------------------------------------------|
G |--9-9-9-9--9----------7-7---7--14-14-14-14-13-13-13-13-------|
D |--9-9-9-9--9-----99---7-7---7---x--x--x--x--x--x--x--x-------|
A |--7-7-7-7--7*----99---5-5---5--12-12-12-12-11-11-11-11-------|
E |-----------------77------------------------------------------|

p.m.........

VERSE 1:

 E5B5A5
e |---------------------------------------|
B |---------------------------------------|
G |--9-9-9-9------------------------------| Play 4x
D |--9-9-9-9---9-9-9-9---7-7-7-7-7-7-7-7--|
A |--7-7-7-7---9-9-9-9---7-7-7-7-7-7-7-7--|
E |------------7-7-7-7---5-5-5-5-5-5-5-5--|


PRE-CHORUS 1:

 F#5G#5A5B5
e |-------------------------------------------------------|
B |-------------------------------------------------------|
G |-------------------------------------------------------| Part 1
D |---4--4--4--4--4--4--4\\6-6--7--7--7--7--7--7--7\\9--9---|
A |---4--4--4--4--4--4--4\\6-6--7--7--7--7--7--7--7\\9--9---|
E |---2--2--2--2--2--2--2\\4-4--5--5--5--5--5--5--5\\7--7*--|


Guitar 1:
 E5B5A5
e |-----------------------------------------------------------|
B |-----------------------------------------------------------|
G |--9-9-9-9--9----------------------14-14-14-14-13-13-13-13--| Part 2
D |--9-9-9-9--9--------99---7-7---7---x--x--x--x--x--x--x--x--|
A |--7-7-7-7--7*-------99---7-7---7--12-12-12-12-11-11-11-11--|
E |--------------------77---5-5---5---------------------------|


Guitar 2:
 E5
e |-----------------------------------------------------------|
B |-----------------------------------------------------------|
G |--9-9-9-9--9-999----88---6-6---6--14-14-14-14-13-13-13-13--| Part 2
D |--9-9-9-9--9-xxx----xx---x-x---x---x--x--x--x--x--x--x--x--|
A |--7-7-7-7--7-777----66---4-4---4--12-12-12-12-11-11-11-11--|
E |-----------------------------------------------------------|


Then Repeat Part 1, then:

CHORUS 1:

 E5B5A5
e |-----------------------------------------------------------|
B |-----------------------------------------------------------|
G |--9-9-9-9--9-------------------14-14-14-14-13-13-13-13-----|
D |--9-9-9-9--9-----99---7-7---7---x--x--x--x--x--x--x--x-----|
A |--7-7-7-7--7*----99---7-7---7--12-12-12-12-11-11-11-11-----|
E |-----------------77---5-5---5------------------------------|


Guitar 1:
 E5B5D5
e |-----------------------------------------------------------|
B |-----------------------------------------------------------|
G |--9-9-9-9--9----------7-7---7--14-14-14-14-13-13-13-13-----|
D |--9-9-9-9--9-----99---7-7---7---x--x--x--x--x--x--x--x-----|
A |--7-7-7-7--7*----99---5-5---5--12-12-12-12-11-11-11-11-----|
E |-----------------77----------------------------------------|

p.m.........

Guitar 2:
 E5
e |-----------------------------------------------------------|
B |-----------------------------------------------------------|
G |--9-9-9-9--9-999-88--11-11--11--14-14-14-14-13-13-13-13----|
D |--9-9-9-9--9-xxx-xx---x--x---x---x--x--x--x--x--x--x--x----|
A |--7-7-7-7--7-777-66---9--9---9--12-12-12-12-11-11-11-11----|
E |-----------------------------------------------------------|

p.m.........

VERSE 2

Guitar 1: Guitar 2(Part 1):
 E5
e |-----|  e |------------------|
B |-----|  B |------------------|
G |--9--|  G |------9-------9---| Play 8x
D |--9--|  D |----9---9---9---9-|
A |--7*-|  A |-(7)-----(7)------|
E |-----|  E |------------------|


After Part 1 is played 4x Guitar 1 comes in with this,

Guitar 1: (also some feedback here)
 E5B5A5
e |-------------------------------------------------------------|
B |-------------------------------------------------------------|
G |--99--9--99--9-----------------------------------------------| Play 2x
D |--99--9--99--9---99--9--99--9---77--7--77--7---77--7--77--7--|
A |--77--7--77--7---99--9--99--9---77--7--77--7---77--7--77--7--|
E |-----------------77--7--77--7---55--5--55--5---55--5--55--5--|

p.m.... ... ... ... ... ... ... ...

Then Repeat PRE-CHORUS 1 except Part 2 has the E5 palm muted on Both
Guitars, then:

CHORUS 2:

 E5B5A5
e |----------------------------------------------------------|
B |----------------------------------------------------------|
G |--9-9-9-9-9x---------------14-14-14-14-13-13-13-13--------| Part 1
D |--9-9-9-9-9x-----9---7-7----x--x--x--x--x--x--x--x--------|
A |--7-7-7-7-7x-----9---7-7---12-12-12-12-11-11-11-11--------|
E |-----------------7---5-5----------------------------------|


 E5B5D5
e |----------------------------------------------------------|
B |----------------------------------------------------------|
G |--9-9-9-9-9x---------7-7---14-14-14-14-13-13-13-13--------| Part 2
D |--9-9-9-9-9x-----9---7-7----x--x--x--x--x--x--x--x--------|
A |--7-7-7-7-7x-----9---5-5---12-12-12-12-11-11-11-11--------|
E |-----------------7----------------------------------------|


Guitar 1:
 E5B5A5
e |-----------------------------------------------------------|
B |-----------------------------------------------------------|
G |--9-9-9-9--9----------------------14-14-14-14-13-13-13-13--| Part 3
D |--9-9-9-9--9--------99---7-7---7---x--x--x--x--x--x--x--x--|
A |--7-7-7-7--7*-------99---7-7---7--12-12-12-12-11-11-11-11--|
E |--------------------77---5-5---5---------------------------|

p.m.........

Guitar 2:
 E5
e |-----------------------------------------------------------|
B |-----------------------------------------------------------|
G |--9-9-9-9--9-999----88---6-6---6--14-14-14-14-13-13-13-13--| Part 3
D |--9-9-9-9--9-xxx----xx---x-x---x---x--x--x--x--x--x--x--x--|
A |--7-7-7-7--7-777----66---4-4---4--12-12-12-12-11-11-11-11--|
E |-----------------------------------------------------------|

p.m.........

Guitar 1:
 E5B5D5
e |-----------------------------------------------------------|
B |-----------------------------------------------------------|
G |--9-9-9-9--9-------------7-7---7--14-14---14--13-13---13---| Part 4
D |--9-9-9-9--9--------99---7-7---7---x--x----x---x--x----x---|
A |--7-7-7-7--7*-------99---5-5---5--12-12---12--11-11---11---|
E |--------------------77-------------------------------------|

p.m......... ..... .....

Guitar 2:
 E5
e |-----------------------------------------------------------|
B |-----------------------------------------------------------|
G |--9-9-9-9--9-999----88--11-11--11--14-14---14--13-13---13--| Part 4
D |--9-9-9-9--7-xxx----xx---x--x---x---x--x----x---x--x----x--|
A |--7-7-7-7--7-777----66---9--9---9--12-12---12--11-11---11--|
E |-----------------------------------------------------------|

p.m......... ..... .....

VERSE 2

Guitar 1: Guitar 2:
e |-------------------|           e |--------------|
B |-------------------|           B |--------------|
G |------9-------9----| Play 3.5x G |--------------|
D |----9---9---9---9--|           D |--9-7*-----9*-|
A |--7-------7--------|           A |--------------|
E |-------------------|           E |--------------|


Then play VERSE 1 twice, then

BRIDGE "...still be into you..."

 F#5A5E5
e |-----------------------------------------------|
B |-----------------------------------------------|
G |----------------------------------------9------| Also add some feedback
D |---4-4-4-4-4-4-4-4---7-7-7-7-7-7-7-7----9------| here.
A |---4-4-4-4-4-4-4-4---7-7-7-7-7-7-7-7----7*-----|
E |---2-2-2-2-2-2-2-2---5-5-5-5-5-5-5-5-----------|


"...I just wanna be happy..."
 F#5G#5A5B5
e |-----------------------------------------------|
B |-----------------------------------------------|
G |-----------------------------------------------|
D |---4-4-4-4---6-6-6-6---7-7-7-7-7-7-7-7------9--|
A |---4-4-4-4---6-6-6-6---7-7-7-7-7-7-7-7------9--|
E |---2-2-2-2---4-4-4-4---5-5-5-5-5-5-5-5------7*-|


CHORUS 3:

Guitar 1:
 E5B5A5
e |-----------------------------------------------------------|
B |-----------------------------------------------------------|
G |--9-9-9-9--9----------------------14-14-14-14-13-13-13-13--| Part 1
D |--9-9-9-9--9--------99---7-7---7---x--x--x--x--x--x--x--x--|
A |--7-7-7-7--7*-------99---7-7---7--12-12-12-12-11-11-11-11--|
E |--------------------77---5-5---5---------------------------|

p.m.........

Guitar 2:
 E5
e |-----------------------------------------------------------|
B |-----------------------------------------------------------|
G |--9-9-9-9--9-999----88---6-6---6--14-14-14-14-13-13-13-13--| Part 1
D |--9-9-9-9--9-xxx----xx---x-x---x---x--x--x--x--x--x--x--x--|
A |--7-7-7-7--7-777----66---4-4---4--12-12-12-12-11-11-11-11--|
E |-----------------------------------------------------------|

p.m.........

Guitar 1:
 E5B5D5
e |-----------------------------------------------------------|
B |-----------------------------------------------------------|
G |--9-9-9-9--9-------------7-7---7--14-14---14--13-13---13---| Part 2
D |--9-9-9-9--9--------99---7-7---7---x--x----x---x--x----x---|
A |--7-7-7-7--7*-------99---5-5---5--12-12---12--11-11---11---|
E |--------------------77-------------------------------------|

p.m......... ..... .....

Guitar 2:
 E5
e |-----------------------------------------------------------|
B |-----------------------------------------------------------|
G |--9-9-9-9--9-999----88--11-11--11--14-14---14--13-13---13--| Part 2
D |--9-9-9-9--7-xxx----xx---x--x---x---x--x----x---x--x----x--|
A |--7-7-7-7--7-777----66---9--9---9--12-12---12--11-11---11--|
E |-----------------------------------------------------------|

p.m......... ..... .....

Guitar 1:
 E5B5A5
e |-----------------------------------------------------------|
B |-----------------------------------------------------------|
G |--9-9-9-9--9----------------------14-14-14-14-13-13-13-13--| Part 3
D |--9-9-9-9--9--------99---7-7---7---x--x--x--x--x--x--x--x--|
A |--7-7-7-7--7*-------99---7-7---7--12-12-12-12-11-11-11-11--|
E |--------------------77---5-5---5---------------------------|


Guitar 2:
 E5
e |-----------------------------------------------------------|
B |-----------------------------------------------------------|
G |--9-9-9-9--9-999----88---6-6---6--14-14-14-14-13-13-13-13--| Part 3
D |--9-9-9-9--9-xxx----xx---x-x---x---x--x--x--x--x--x--x--x--|
A |--7-7-7-7--7-777----66---4-4---4--12-12-12-12-11-11-11-11--|
E |-----------------------------------------------------------|


 E5B5D5
e |-----------------------------|
B |-----------------------------| Part 4
G |--9-9-9-9--9------------7-7--| End on D
D |--9-9-9-9--9--------9---7-7--|
A |--7-7-7-7--7*-------9---5-5*-|
E |--------------------7--------|

p.m.........

That's it! Email me for comments, corrections, and death threats
(Gomer188@hotmail.com)
The bass for this song is incredible, so someone tab it out!


A5 B5 D5 E5 F#5 G#5
variations - click chord images
Transpose chords:
Tuning:
Cool service:
View: Size:
A  A  A
Rating:
Layout:
  • Currently 0/5 Stars.
  • 1
  • 2
  • 3
  • 4
  • 5
 
Accuracy:
  • Currently 3/5 Stars.
  • 1
  • 2
  • 3
  • 4
  • 5
 
click stars to rate
Chordie recommends:
Check out JamPlay.com for online video guitar lessons
Songbook:
Login to add this song to your songbook
Support the artist
Preview/buy this song
MSN Music
Why this non-profit ad?

 
login to add comments/video/corrections