Guitar Tabs, Chords and Lyrics


Amigone  Goo Goo Dolls

e ---0---0---0---0- 



B -5---4---2---0--- 


G ----------------- 


D ----------------- 


A ----------------- 


E ----------------- 


E5-B5-C#5-G#5-A5-E5-B5(w/riff)


E5-B5-C#5-G#5-A5-E5-B5(w/riff)


e -----0------0-------0---------------


B ---0---0----------0---0---0--------- 


G ------------------------4-----------


D ---------2--------------------------


A ---------------2--------------------


E -0----------------------------------


e -----0-------0---------------0-----0----


B ---0---0-------------------0---0--------


G ----------6-----------------------------


D ---------------------------------6------


A -4--------------------------------------


E ------------------------4---------------


e -----------0------0-----------------------------0----0-


B ---------0---0---------------------------------0-0-----


G ---------------2---------------------------------------


D ---------------------------------------------------2---


A ------0------------------------------------------------


E --------------------------------------------0----------


e ------------------0------0-----0---0---0---0-


B ----------------0---0--------5---4---2---0---


G ----------------------4----------------------


D ---------------------------------------------


A --------------2------------------------------


E ---------------------------------------------

         [E5]   Are you alive
[B5]   [C#5]    Amigone (...Miracles gone wrong)
G#5 A5 E5 B5(w/riff)
Is it to late to call and tell you to be strong
         [E5]   Are you alive
[B5]   [C#5]    Amigone (...Miracles gone wrong)
G#5 A5 E5 B5(w/riff)
Was the poison in our love there all along
Amigone
E-B4-A2 (4x)
(verse - substitute B5 for riff)
Heavenly intoxication
Love's been marred by medication
Ain't it funny how a life can take a turn
When the end is near
(chorus)
Are you alive
Amigone (...Miracles gone wrong)
Is it too late to call and tell you to be strong
Are you alive
Amigone (...Miracles gone wrong)
Is it too late to face the truth that it was wrong
Amigone
(bass plays 2 measures of E-B-A)
Bridge:
        [E]                 [B4]   I'm not sayin' that it's nothin'
        [A2]   I ain't gonna play along
        [E]              [B4]   I ain't wishin' for a miracle
A2(w/riff)
That miracle's gone wrong
And you're too strong
(chorus)
Amigone (...Miracles gone wrong)
Is it too late to call and tell you to be strong
Are you alive
Amigone (...It's there all along)
Was the poison in our love there all along
Are you alive
(chorus)
Amigone (...Miracles gone wrong)
Is it too late to call and tell you to be strong
Are you alive
Amigone (...It's there all along)
Was the poison in our love there all along
Amigone
End on E5
This file is copyright googoodolls@musicfanclubs.org, 1998. You are
free to use it for your personal or educational use, but permission must
be granted to post this transcription. Thank you.

Important: The song above is NOT stored on the Chordie server. The original song is hosted at www.xguitar.com. Chordie works as a search engine and provides on-the-fly formatting. Chordie does not index songs against artists'/composers' will. To remove this song please click here.

Text color:
Chord color:
Chord grids: 
Font size:    
Page size: 

A2 B4 B5 C#5 E E5
variations - click chord images

Login - add to songbook

Transpose chords

Tuning

Rating click stars to rate

Layout
Accuracy

SHARE PAGE  




You need to log in to post comments