Guitar Tabs, Chords and Lyrics


Dizzy  Goo Goo Dolls

e -8-8-8--5-5-5--3-1-



B -8-8-8--5-5-5--3-1-


G -------------------


D -------------------


A -------------------


E -------------------

[E5]   Verse:
[E5]   You're cynical and beautiful
You always make a scene
[A5]   You're monochrome, delerious
You're nothing that you seem
[E5]   I'm drownin in your vanity
Your laugh is a disease
[A5]   You're dirty and you're sweet
* riff
You know you're everything to me
Chorus:
[F5-A5]         [C5]     [G5]          [F5]    [A5]   Ooooh,   everything you are
[C5]               [G5]           [F5]    [A5]   Falls from the sky like a star
[C5]     [G5]          [F5]    [A5]   Everything you are
[C5]         [G5]           Whatever ever you are
[E5]                                                                               
e --------
B --------
G --------
D --------
A --------
E --2b---- 

(verse)
I wanna kill at the machine
That made you piss away you dreams
Tear down your defenses
Till there's nothing there but me
You're angry when you're beautiful
Your love is such a tease
I'm drowning in your Dizzy noise
I wanna feel you scream
(chorus)
Oh, everything you are
Falls from the sky like a star
Everything you are
Whatever ever you are
Break: (guitar 1 on top, guitar 2 on bottom)
e -----------------|------------------|------------------|------------------
B -----------------|------------------|--5b(6)r5---------|------------------
G --4b5r4b5r4b5r4--|--4b5r4b5r4b5r4---|------------------|------------------
D -----------------|------------------|------------------|------------------
A -----------------|------------------|------------------|------------------
E -----------------|------------------|------------------|------------------

|
e -------3-3-------|--------3-3-------|-------3-3--------|-----3-------3----
B -----1-----1-----|------1-----1-----|-----1-----1------|-0h1---1-0h1------
G ---2---------2---|----0---------0---|---0---------0----|------------------
D -----------------|------------------|------------------|------------------
A -0-------------0-|------------------|------------------|------------------
E -----------------|--3-------------3-|-1-------------1--|------------------
e -----------------|------------------|-4s5--------------|-5-------3--------
B --3b4-r3---------|------------------|------------------|------------------
G -----------------|------------------|------------------|------------------
D -----------------|------------------|------------------|------------------
A -----------------|------------------|------------------|------------------
E -----------------|------------------|------------------|------------------

|
e -------3-3-------|--------3-3-------|-------3-3--------|-----3-------3----
B -----1-----1-----|------1-----1-----|-----1-----1------|-0h1---1-0h1------
G ---2---------2---|----0---------0---|---0---------0----|------------------
D -----------------|------------------|------------------|------------------
A -0-------------0-|------------------|------------------|------------------
E -----------------|--3-------------3-|-1-------------1--|------------------
e -----------------|------------------|------------------|-5b6--------------
B --3b4--r3--------|------------5b6---|--------r5--------|------------------
G -----------------|------------------|------------------|------------------
D -----------------|------------------|------------------|------------------
A -----------------|------------------|------------------|------------------
E -----------------|------------------|------------------|------------------

|
e -------3-3-------|--------3-3-------|-------3-3--------|-----3-------3----
B -----1-----1-----|------1-----1-----|-----1-----1------|-0h1---1-0h1------
G ---2---------2---|----0---------0---|---0---------0----|------------------
D -----------------|------------------|------------------|------------------
A -0-------------0-|------------------|------------------|------------------
E -----------------|--3-------------3-|-1-------------1--|------------------
e -----------------|------------------|------------------|------------------
B -----------------|------------------|------------------|------------------
G -4b5r4b5r4b5r4b5-|-4b5r4b5r4b5r4b5--|-2-2-2-2-4-4-4-4--|-5-5-5-5-7--------
D -----------------|------------------|-2-2-2-2-4-4-4-4--|-5-5-5-5-7--------
A -----------------|------------------|-0-0-0-0-2-2-2-2--|-3-3-3-3-5--------
E -----------------|------------------|------------------|------------------

|
e -------3-3-------|--------3-3-------|------------------|------------------
B -----1-----1-----|------1-----1-----|------------------|------------------
G ---2---------2---|----0---------0---|-2-2-2-2-4-4-4-4--|-5-5-5-5-7--------
D -----------------|------------------|-2-2-2-2-4-4-4-4--|-5-5-5-5-7--------
A -0-------------0-|------------------|-0-0-0-0-2-2-2-2--|-3-3-3-3-5--------
E -----------------|--3-------------3-|------------------|------------------

(chorus)
Oh, everything you are
Falls from the sky like a star
Everything you are
Whatever ever you are
(chorus)
Everything you are
Whatever ever you are
Whatever ever you are
Whatever ever you are
End on F5
This file is copyright googoodolls@musicfanclubs.org, 1998. You are
free to use it for your personal or educational use, but permission must
be granted to post this transcription. Thank you.

Important: The song above is NOT stored on the Chordie server. The original song is hosted at www.xguitar.com. Chordie works as a search engine and provides on-the-fly formatting. Chordie does not index songs against artists'/composers' will. To remove this song please click here.

Text color:
Chord color:
Chord grids: 
Font size:    
Page size: 

A5 C5 E5 F5 G5
variations - click chord images

Login - add to songbook

Transpose chords

Tuning

Rating click stars to rate

Layout
Accuracy

SHARE PAGE  




You need to log in to post comments