e -----10--12-

B ---7--------

G -7----------

D ------------

A ------------

E ------------


 B-B-BA-AG-G-F#-E-EB-B-BA-AG-G-F#-E-E
                                           Verse: (arpeggiate the chords)
 DEG
                             And I'd give up forever to touch you
 BAG
                                    'Cause I know that you feel me somehow
 DEG
                                    You're the closest to heaven that I'll ever be
B A G *riff 1*
And I don't want to go home right now
(verse)
And all I can taste is this moment
And all I can breathe is your life
'Cause sooner or later it's over
I just don't want to miss you tonight *riff 1*
Chorus:
 BAG
                                And I don't want the world to see me
 BAG
                                    'Cause I don't think that they'd understand
 BAG
                               When everything's made to be broken
 BAG
                                I just want you to know who I am
 B-B-BA-AG-G-F#-E-EB-B-BA-AG-G-F#
                                       (verse)
And you can't fight the tears that ain't coming
Or the moment of truth in your lies
When everything feels like the movies
Yeah you bleed just to know you're alive
(chorus)
And I don't want the world to see me
'Cause I don't think that they'd understand
When everything's made to be broken
I just want you to know who I am
 B-C#-DB-A-GB-C#-DB-A-G
                                   Break:
B-B-B-B   A-A-A-A   B-A

 G-G-GF#-F#G-F#-E
                    (repeat three total times, then:)
B-B-B-B   A-A-A-A   B-A

Solo:
(guitar 1 plays the chords,
guitar 2 the solo with *generous* slide)
 GF#GBG
e ------|---------|-------|----------|----------
B ------|---------|-------|----------|----7-----
G -/7---|-6----2/-|-7--/9-|-/11--\2/-|-7----6---
D ------|---------|-------|----------|----------
A ------|---------|-------|----------|----------
E ------|---------|-------|----------|----------

 F#B-C#-D-E-F#GF#B
e -----|-----------|-------|--------|-9--10--9--------9-
B -----|-0/12------|-------|-----10-|----------10-------
G -(6)\|-----------|--7--/9|-/11----|--------------11---
D -----|-----------|-------|--------|-------------------
A -----|-----------|-------|--------|-------------------
E -----|-----------|-------|--------|-------------------
B-A-G-F#-E-D-B

(rest 2 measures)
 B-C#-DB-A-G
              (chorus)
And I don't want the world to see me
'Cause I don't think that they'd understand
When everything's made to be broken
I just want you to know who I am
 G
   (chorus)
And I don't want the world to see me
'Cause I don't think that they'd understand
When everything's made to be broken
I just want you to know who I am
 BAG
                                I just want you to know who I am
 BAG
                                I just want you to know who I am
 BAG
                                I just want you to know who I am
 B-C#-DB-A-GB-C#-DB-A-G
                                 (fade out)
----------

(Standard Tuning version)
(note: This isn't exactly what Johnny plays, but it
is close and sounds fine for playing along with the
song or by yourself.)
Bm7 - x2023x (or x24232)
G/F# - 2x0033
Em7 - 022033
Intro:
 Bm7-Bm7-A-A-Bm7G-G-G/F#-G/F#-Em7Bm7-Bm7-A-A-Bm7G-G-G/F#-G/F#-Em7
                                                                       Riff 1 (mandolin, written for guitar 2):
e -----10---
B ---7------
G -7--------
D ----------
A ----------
E ----------

 -----
       Verse:
 Bm7AG
                             And I'd give up forever to touch you
 Bm7AG
                                    'Cause I know that you feel me somehow
 Bm7AG
                                    You're the closest to heaven that I'll ever be
Bm7 A G *riff 1*
And I don't want to go home right now
(verse)
And all I can taste is this moment
And all I can breathe is your life
'Cause sooner or later it's over
I just don't want to miss you tonight
Chorus:
(play verse part)
And I don't want the world to see me
'Cause I don't think that they'd understand
When everything's made to be broken
I just want you to know who I am
(play intro minus last Em7)
(verse)
And you can't fight the tears that ain't coming
Or the moment of truth in your life
When everything feels like the movies
Yeah you bleed just to know you're alive
(chorus)
And I don't want the world to see me
'Cause I don't think that they'd understand
When everything's made to be broken
I just want you to know who I am
Break:
Bm7-Bm7-Bm7-Bm7   A-A-A-A   Bm7-A

 G-G-GG/F#-G/F#G-G/F#-Em7
                            (repeat three total times, then:)
Bm7-Bm7-Bm7-Bm7   A-A-A-A   Bm7-A

and Solo:
(with *generous* slide)
e ------|---------|----------------|----------
B ------|---------|----------------|----7-----
G -/7---|-6----2/-|-7--/9-/11--\2/-|-7----6---
D ------|---------|----------------|----------
A ------|---------|----------------|----------
E ------|---------|----------------|----------
e ------------|---------------|-9--10--9--------9-
B ------0/12--|------------10-|----------10-------
G -(6)\-------|--7--/9/11-----|--------------11---
D ------------|---------------|-------------------
A ------------|---------------|-------------------
E ------------|---------------|-------------------

(play verse chords)
(chorus)
And I don't want the world to see me
'Cause I don't think that they'd understand
When everything's made to be broken
I just want you to know who I am
(chorus)
And I don't want the world to see me
'Cause I don't think that they'd understand
When everything's made to be broken
I just want you to know who I am
 Bm7AG
                                I just want you to know who I am
 Bm7AG
                                I just want you to know who I am
 Bm7AG
                                I just want you to know who I am
This file is copyright googoodolls@musicfanclubs.org, 1998. You are
free to use it for your personal or educational use, but permission must
be granted to post this transcription. Thank you.


A B Bm7 D E F# G
variations - click chord images
Transpose chords:
Tuning:
Cool service:
View: Size:
A  A  A
Rating:
Layout:
  • Currently 2.3/5 Stars.
  • 1
  • 2
  • 3
  • 4
  • 5
 
Accuracy:
  • Currently 2.9/5 Stars.
  • 1
  • 2
  • 3
  • 4
  • 5
 
click stars to rate
Chordie recommends:
Check out JamPlay.com for online video guitar lessons
Songbook:
Login to add this song to your songbook
Support the artist
Preview/buy this song
MSN Music
Why this non-profit ad?

 
login to add comments/video/corrections

Carrylawn (report comment to admin):
http://www.xguitar.com/guitar-tabs/goo_goo_dolls/dizzy_up_the_girl/iris.txt

chords not over words

76.23.179.79