Here Is Gone

Goo Goo Dolls

------------------------------


 A#mC#
F ||--0-----0------0----0--0--|--0-----0------0----0--0--|
C#||--0-----0------0----0--0--|--0-----0------0----0--0--|
G#||--5/7---7---7--5-5--5--5--|--5/7---7---7--5-5--5--5--|
D#||--5/7---7---7--5-5--5--5--|--5/7---7---7--5-5--5--5--|
A#||--0-----------------------|--0-----------------------|
F ||--------------------------|--------------------------|

 G#6sus4F#maj9
-------0---0-0-0-0--0--0-0-|-------0---0-0-0-0--0--0-0-|------------------|
-------0---0-0-0-0--0--0-0-|-------0---0-0-0-0--0--0-0-|------------------|
--0----0---0-0-0-0--0--0-0-|--0----0---0-0-0-0--0--0-0-|------------------|
--0----------0-0-0--0------|--3----------3-3-3--3------|------------------|
--x----------x-x-x---------|--3----------3-3-3---------|------------------|
--3----------3-3-3---------|--1----------1-1-1---------|------------------|

Pre chorus
 D#9A#mC#
|--0----------------|--0----------------|--0----------------|-----------0------------|
|--0----------------|--0----------------|--0----------------|----------------0-------|
|--7----------------|--2----------------|--5----------------|--------5---------------|
|--7----------------|--2----------------|--5----------------|-----5-------------5----|
|--5----------------|--0----------------|--3----------------|--3---------------------|
|-------------------|-------------------|-------------------|------------------------|

 D#9A#mG#F#
--0----------------|--0----------------|----------0----0--0--0--|----------0----0--0--0--|
--0----------------|--0----------------|----------0----0--0--0--|----------0----0--0--0--|
--7----------------|--2----------------|--0----0--0----0--0--0--|----------0----0--0--0--|
--7----------------|--2----------------|--0----0----------0-----|--3----3----------3-----|
--5----------------|--0----------------|--x---------------------|--3----3----------3-----|
-------------------|-------------------|--3----3----------3-----|--1----1----------1-----|

Chorus
 C#C#/B#A#m7G#F#
--3----------------|--3----------------|--3----------------|--3--------0--------|
--0----------------|--0----------------|--0----------------|--0--------0--------|
--0----------------|--0----------------|--2----------------|--0-----------------|
--x----------------|--x----------------|--2----------------|--0--------3--------|
--3----------------|--2----------------|--0----------------|--x--------3--------|
-------------------|-------------------|-------------------|--3--------1--------|

Bridge
 A#mF#
--0----------------|--0----------------|
--0----------------|--0----------------|
--2----------------|--0----------------|
--2----------------|--3----------------|
--0----------------|--3----------------|
-------------------|--1----------------|

 C#C#/B#A#mF#
--0----------------|--0----------------|--0----------------|--0----------------|
--0----------------|--0----------------|--0----------------|--0----------------|
--5----------------|--x----------------|--2----------------|--0----------------|
--5----------------|--5----------------|--2----------------|--3----------------|
--3----------------|--2----------------|--0----------------|--3----------------|
-------------------|-------------------|-------------------|--1----------------|

 C#C#/B#A#mG#F#
--0------0--0--------|--0------0----------|--0--0--0---0-0-0-0--0--0-0-|
--0------0--0--------|--0------0----------|--0--0--0---0-0-0-0--0--0-0-|
--5------0--0--------|--2------0----------|--0--0--0---0-0-0-0--0--0-0-|
--5------------------|--2------0----------|--3--3--3---3-3-3-3--3--3-3-|
--3------2--2--------|--0------x----------|--3--3--3---3-3-3-3--3--3-3-|
---------------------|---------3----------|--1--1--1---1-1-1-1--1--1-1-|
--0--0--0---0-0-0-0--0--0-0-||
--0--0--0---0-0-0-0--0--0-0-||
--0--0--0---0-0-0-0--0--0-0-||
--3--3--3---3-3-3-3--3--3-3-||
--3--3--3---3-3-3-3--3--3-3-||
--1--1--1---1-1-1-1--1--1-1-||































A#m A#m7 C# D#9 F# F#maj9 G# G#6sus4
variations - click chord images
Transpose chords:
Tuning:
Cool service:
View: Size:
A  A  A
Rating:
Layout:
  • Currently 3.1/5 Stars.
  • 1
  • 2
  • 3
  • 4
  • 5
 
Accuracy:
  • Currently 2.5/5 Stars.
  • 1
  • 2
  • 3
  • 4
  • 5
 
click stars to rate
Chordie recommends:
Learn to play songs at Jamplay.com with video guitar lessons
Songbook:
Login to add this song to your songbook
Support the artist
Preview/buy this song
MSN Music
Why this non-profit ad?

 
login to add comments/video/corrections