E|-----------------------------------------------------------

B|-----------------------------------------------------------
G|-9--9--x--9--9--9-9-8--8-8-8h9--9--x--9--9--9-9-8--8-8-8h9-
D|-x--x--x--x--x--x-x-x--x-x-x-x--x--x--x--x--x-x-x--x-x-x-x-
A|-7--7--x--7--7--7-7-7--7-7-7-7--7--x--7--7--7-7-7--7-7-7-7-
E|-----------------------------------------------------------
E|--------------------------------------------------------
B|--------------------------------------------------------
G|-9--x--9--9--9-9-8--8-8-8h9--9--x--9--9--9-9-8--8-8-8h9-
D|-x--x--x--x--x-x-x--x-x-x-x--x--x--x--x--x-x-x--x-x-x-x-
A|-7--x--7--7--7-7-7--7-7-7-7--7--x--7--7--7-7-7--7-7-7-7-
E|--------------------------------------------------------
E|---------------------------------------
B|-------12-12-12-12---------------------
G|--------------------11---11--11---9v---
D|---------------------------------------
A|---------------------------------------
E|---------------------------------------
E5-E5-E5-D#/E5-A5-A5-B5-B5
E5-E5-E5-D#/E5-A5-A5-B5-B5

 E5D#/E5A5B5
 Hey,  What are you thinkin' i tried to reach your face
 E5D#/E5
 Say,  Say what your thinkin'
 A5B5
don't carry round that pain

Bridge:
 A5B5E5A5
 Everytime i see you,  yah pickin' at yourself
 A5B5
 i love, i love when things work out

Rhythm Guitar: Riff 1
Lead Guitar:
E5-E5-E5-D#/E5-A5-A5-B5-B5
E5-E5-E5-D#/E5-A5-A5-B5-B5


VERSE

BRIDGE 2:
- play bridge
(then play E5-E5 at the end)

BRIDGE 2

Interlude:
 A5E5
Yeah, i see it from another place right now
 A5B5
I'm comin' home before i hit the ground
Right that's where i want to be right

Outro:
(play riff 2 throughout it also)
Rhythm Guitar: Riff 1
Lead Guitar:
E5-E5-E5-D#/E5-A5-A5-B5-B5

now...
E5-E5-E5-D#/E5-A5-A5-B5-B5
E5-E5-E5-D#/E5-A5-A5-B5-B5


That's it. Great song to play simple and effective.


A5 B5 E5
variations - click chord images
Transpose chords:
Tuning:
Cool service:
View: Size:
A  A  A
Rating:
Layout:
  • Currently 3/5 Stars.
  • 1
  • 2
  • 3
  • 4
  • 5
 
Accuracy:
  • Currently 2.6/5 Stars.
  • 1
  • 2
  • 3
  • 4
  • 5
 
click stars to rate
Chordie recommends:
Learn to play guitar with video-based, online guitar lessons at JamPlay.com
Songbook:
Login to add this song to your songbook
Support the artist
Preview/buy this song
MSN Music
Why this non-profit ad?

 
login to add comments/video/corrections