Sympathy

Goo Goo Dolls

 ABCDEFGA2A3A4B2
D|---------------------------------------------------------------------------|
D|---------------------------------------------------------------------------|
A|---------------------------------------------------------------------------|
D|--5---- 5---- 5-----------------------7--------------------------2-------3-|
A|--3---- 2---- 5-----5-----5-----2-----5-------3--------5---------2-------1-|
E|--------------------5-----3-----2-------------3--------5-------------------|

PRE-CHORUS RIFF
D|---------------------------------------------------------------------------|
D|---------------------------------------------------------------------------|
A|---------------------------------------------------------------------------|
D|--------7/9-9-9-9-9---0----------------------------------------------------|
A|--------------------7------------------------------------------------------|
E|---------------------------------------------------------------------------|

/ = slide up
ORDER
INTRO = A, B, C, D X2
CHORUS:
 ABCDABCD
 Stranger than your sympathy, this is my apology.
 ABCDABCD
I'm killin' myself from the inside out, and now my fears have pushed you out.
VERSE:
 DEA
 And I wished for things that I don't need. All I wanted...
 DEA
 And what I chase won't set me free. All I wanted...
 DEFA
 And I get scared but I'm not crawlin' on my knees.
 FAFAF
Oh yeah, everything's all wrong and yeah, everything's all wrong, and yeah,
 AG
Who the hell did I think I was.
PRE-CHORUS RIFF
CHORUS
VERSE 2
CHORUS
BRIDGE:
 FA2A3A4
 And I wasn't all the things I tried to make believe I was.
 FA2A3B2
 And I wouldn't be the one to kneel before the dreams I wanted.
 A4AA4AG
 All the talking, all the lies, were all the empty things disguised as me.
PRE-CHORUS RIFF
CHORUS
FINISH ON 'G'






A A2 A3 A4 B B2 C D E F G
variations - click chord images
Transpose chords:
Tuning:
Cool service:
View: Size:
A  A  A
Rating:
Layout:
  • Currently 2.8/5 Stars.
  • 1
  • 2
  • 3
  • 4
  • 5
 
Accuracy:
  • Currently 2/5 Stars.
  • 1
  • 2
  • 3
  • 4
  • 5
 
click stars to rate
Chordie recommends:
Learn how to play guitar at JamPlay.com
Songbook:
Login to add this song to your songbook
Support the artist
Preview/buy this song
MSN Music
Why this non-profit ad?

 
login to add comments/video/corrections