Guitar Tabs, Chords and Lyrics


Think About Me   Goo Goo Dolls



Title: Think about me
Artist: Goo Goo Dolls
Album: GutterFlower

Instrument: Guitar

Tabbed by: Patrick Lemay (wave_97@hotmail.com)

Tuning: Select a Tuning... ( C  G  D  G  D  D)

Another sweet song by the Goo Goo Dolls and another crazy 
tuning I guess. I'm 100% sure that my tab is correct. 
Keep an eye on the strumming and thats about it

Intro
 D|-0---0-0-0--0-0-0-0-----0-0-0-0-0-||
 D|-0---0-0-0--0-0-0-0-----0-0-0-0-0-||
 G|-0---0-0-0--0-0-0-0-----0-0-0-0-0-||
 D|-4/5-5-5-5--4-4-4-4/5---5-5-5-5-5-||
 G|-0---0-0-0--0-0-0-0-----5-5-5-5-5-||
 C|----------------------0-----------||

Verse

 D|-0-0-|-0-0-|-0-0-0-0-|-0-0-|-0-0-|-0-0-0-0-||
 D|-0-0-|-0-0-|-0-0-0-0-|-0-0-|-0-0-|-0-0-0-0-||
 G|-0-0-|-0-0-|-0-0-0-0-|-0-0-|-0-0-|-0-0-0-0-||
 D|-7-7-|-9-9-|-5-5-5-5-|-9-9-|-7-7-|-5-5-5-5-||
 G|-7-7-|-9-9-|-5-5-5-5-|-9-9-|-7-7-|-5-5-5-5-||
 C|-----|-----|---------|-----|-----|---------||

Pre-Chorus
 D|-0-0-0-0-|-0-0-0-0-|-0-0-0-0-|-0-0-0-----0-0-0-|-0-0-0-0-||
 D|-0-0-0-0-|-0-0-0-0-|-0-0-0-0-|-0-0-0-0-2-0---0-|-0-0-0-0-||
 G|-0-0-0-0-|-0-0-0-0-|-0-0-0-0-|-0-0----0-0-0--0-|-0-0-0-0-||
 D|-2-2-2-2-|-4-4-4-4-|-2-2-2-2-|-2-2-----------2-|-5-5-5-5-||
 G|-4-4-4-4-|-4-4-4-4-|-4-4-4-4-|-2-2-----------2-|-5-5-5-5-||
 C|-4-4-4-4-|---------|-4-4-4-4-|-----------------|---------||

Chorus

Play intro again
 D|-0---0-0-0--0-0-0-0-----0-0-0-0-0-||
 D|-0---0-0-0--0-0-0-0-----0-0-0-0-0-||
 G|-0---0-0-0--0-0-0-0-----0-0-0-0-0-||
 D|-4/5-5-5-5--4-4-4-4/5---5-5-5-5-5-||
 G|-0---0-0-0--0-0-0-0-----5-5-5-5-5-||
 C|----------------------0-----------||

Verse
Fill in 1:38
 
 D|--------------------------------||
 D|----0--0-0---------------0------||
 G|-4b-0--2/4-2--0-2-4-2-0--0------||
 D|-0-----------------------0------||
 G|--------------------------------||
 C|--------------------------------||
 
End on this:

 D|--0---||
 D|--0---||
 G|--0---||
 D|--0---||
 G|--0---||
 C|------||

 


Important: The song above is NOT stored on the Chordie server. The original song is hosted at www.xguitar.com. Chordie works as a search engine and provides on-the-fly formatting. Chordie does not index songs against artists'/composers' will. To remove this song please click here.

This song is displayed as text-only. Transposing and tuning is only available for chordpro-songs.

Login - add to songbook

Rating click stars to rate

Layout
Accuracy

SHARE PAGE  




You need to log in to post comments