Guitar Tabs, Chords and Lyrics


Tucked Away  Goo Goo Dolls

E|---------



G|------9--

D|---------
A|---------
E|---------
E|---------
B|---------
G|---------
D|-7p6-----
A|-----7---
E|---------
E|---------------------------|-----------|-----------------|-
B|---------------------------|-----------|-----------------|-
G|---------------------------|-----------|-----------------|-
D|---------------------------|-----------|-----------------|-
A|--------------2-----6---7--|--7--6-----|----------2---4--|-
E|---------------------------|--------7--|--4---5----------|-
E|--------------|------------------|--------------|-------------|-
B|--------------|------------------|--------------|-------------|-
G|--------------|------------------|--------------|-------------|-
D|--------------|------------------|--7--6--------|----7--6-----|-
A|-7--6---------|-----7--6--2--4---|--------7-----|----------7--|-
E|-------7------|------------------|--------------|-------------|-
E|----------------------
B|----------------------
G|----------------------
D|-------7--------------
A|-7--9-----7--9~p7-----
E|----------------------
[Em]   Well, I [C#5]saw you once [B5]    [A5]
Then I [B5]blew it for the [Em]next ten thousand [C#5]days  [B5]    [A5]
B5 Em (riff 1)
I should have packed away
I [C#5]needed to come b[A5]ack and show you
I [B5]needed to go [Em]back
I know it's wr[C#5]ong   [B5]    [A5]
I have to [B5]get along [Em]


Chorus:
[F#5]Mama just called   [A5]
Says she's [Em]tucked away
[F#5]Mama just called   [A5]
Says she's [Em]tucked away another day
[F#5]Mama just called   [A5]
Says she's [Em]tucked away
[F#5]Mama just called   [A5]
B5 A5 Em (riff 2)
Says she's extra sad today


C#5-A5-B5-Em x2


VERSE


CHORUS
(on "Today" play C#5 instead of Em and go onto bridge)


Bridge:
(Start playing Riff 3 under the chords)
[C#5]    So [Em]why'd you go and [A5]play my trust
Today's the same as [C#5]yesterday[Em], and I'm o[A5]kay
I'll [C#5]take a doctor's [Em]recommended [A5]time to get along
Since you've been [C#5]gone    [Em]
I'll [A5]get along anyway at all

Rhythm Guitar:
Lead Guitar: Solo
Solo:
E|-----------------------------------------------------------
B|----------------------------------------------------9-9----
G|-11/13--11--9--8--9--11--9--8--9--9--9-9--8h9-11-11-----11-
D|-----------------------------------------------------------
A|-----------------------------------------------------------
E|-----------------------------------------------------------
E|----------------------------------
B|-9--------------------------------
G|----11--8--GAP--9--9p8--8-9-------
D|----------------------------------
A|----------------------------------
E|----------------------------------



Outro:
CHORUS x2 (but at the end of the chorus go straight
to outro pt 2)


Outro pt2:
B5-B5-B5-B5-B5-B5-B5-B5-A5-A5-A5-A5-A5-A5-A5-A5 (strum fastly)


Finished......Awesome ending.

Important: The song above is NOT stored on the Chordie server. The original song is hosted at www.xguitar.com. Chordie works as a search engine and provides on-the-fly formatting. Chordie does not index songs against artists'/composers' will. To remove this song please click here.

Text color:
Chord color:
Chord grids: 
Font size:    
Page size: 

A5 B5 C#5 Em F#5
variations - click chord images

Login - add to songbook

Transpose chords

Tuning

Rating click stars to rate

Layout
Accuracy

SHARE PAGE  




You need to log in to post comments