Guitar Tabs, Chords and Lyrics


You Never Know  Goo Goo Dolls

E|---------------


B|-5/8-8---------


G|-----5---------

D|---------------
A|---------------
E|---------------
E|------------------------0----|-------------------------------
B|----1-----1-----1-----1----1-|----1-----1-----1-----1-3---1--
G|-----------------------------|-------------------------------
D|--------------------3--------|-0------0-----0-----0----------
A|-3------3-----3--------------|-------------------------------
E|-----------------------------|-------------------------------
E|----------------------|---------------------------
B|-----1----------------|--------3------------------
G|----------------------|---------------------------
D|---2-------------3----|------0-------------5------
A|-3-------------3------|----5-------------5--------
E|-------------1--------|----------------3----------
E|------------------------0----|-------------------------------
B|----1-----1-----1-----1----1-|----1-----1-----1-----1-3---1--
G|-----------------------------|-------------------------------
D|--------------------3--------|-0------0-----0-----0----------
A|-3------3-----3--------------|-------------------------------
E|-----------------------------|-------------------------------
You [C5]hit me like I [D5]never felt be[F5]fore
[C5]Hit me like a s[A5]ucker punch,[F5] you're rotten to the core, you know yah
[C5]hit me like I've [D5]never felt be[F5]fore Silly for the
C5 A5 F5 (play riff 1)
last time


Transfer:
E|------------------------0----|-------------------------------
B|----1-----1-----1-----1----1-|----1-----1-----1-----1-3---1--
G|-----------------------------|-------------------------------
D|--------------------3--------|-0------0-----0-----0---------- x2
A|-3------3-----3--------------|-------------------------------
E|-----------------------------|-------------------------------



VERSE


CHORUS


Bridge:
D5-A5-C5-C5 x4
[D5]   Now ev[E5]eryone gets [F5/2]angry
[D5]   And I [C5]feel it when you're [G5]holding me
But in the [D5]right place, at the [E5]right time, to the [F5/2]right degree
It's a breeding ground For the [D5]pain I've found
From [C5]dealin' with your [G5]scene
You know that ain't [C5]easy

Outro/Solo:
Chords:
C5-G5-F5-F5 Until Outro Finishes
Solo:
(ain't easy...................That ain't easy..............That ain't easy)
E|--------------------------------------------------------------------------
B|-----5-8--5----------------------5-8--5----------------------5-8--5-------
G|-5-7---------5---------------5-7---------5---------------5-7---------5----
D|--------------------------------------------------------------------------
A|--------------------------------------------------------------------------
E|--------------------------------------------------------------------------


(........that ain't easy.............................................hit me like i)
E|---8-----8---------------/10-10--10--8--8---8--8--8-12----13----12--------------
B|-----8-----8--------------------------------------------------------------------
G|--------------------------------------------------------------------------------
D|--------------------------------------------------------------------------------
A|--------------------------------------------------------------------------------
E|--------------------------------------------------------------------------------


(never felt before...................................................hit me like i)
E|---------------13---12----------------------------13---12------------------------
B|-------------------------15---------------------------------15---13--------------
G|---------------------------------------------------------------------------------
D|---------------------------------------------------------------------------------
A|---------------------------------------------------------------------------------
E|---------------------------------------------------------------------------------


(never felt before................................................................)
E|---------------13---12-----------------------------------------------------------
B|-------------------------15---13------------------15---15---15---13--------------
G|---------------------------------------------------------------------------------
D|---------------------------------------------------------------------------------
A|---------------------------------------------------------------------------------
E|---------------------------------------------------------------------------------


(.........i'm silly for the last time)
E|-13---12--------------------------------------------
B|----------15---13-----------------------------------
G|--------------------------5~~~~~~~~~~~~~~~~~~~~~~---
D|--------------------------5~~~~~~~~~~~~~~~~~~~~~~---
A|--------------------------3~~~~~~~~~~~~~~~~~~~~~~---
E|----------------------------------------------------


FINISHED...

As you can see the outro isn't much. It was fairly hard to hear the solo
improvisations but i got there. So yeah enjoy!

Important: The song above is NOT stored on the Chordie server. The original song is hosted at www.xguitar.com. Chordie works as a search engine and provides on-the-fly formatting. Chordie does not index songs against artists'/composers' will. To remove this song please click here.

Text color:
Chord color:
Chord grids: 
Font size:    
Page size: 

A5 C5 D5 E5 F5 G5
variations - click chord images

Login - add to songbook

Transpose chords

Tuning

Rating click stars to rate

Layout
Accuracy

SHARE PAGE  




You need to log in to post comments