eToCache5 = ""; ?> Girl Right Next To Me by Goo Goo Dolls - guitar chords, guitar tabs and lyrics - chordie

Girl Right Next To Me

Goo Goo Dolls

B5(VII): x-7-9-9-x-x		F#5(IX): 9-11-11-x-x-x

Eb5(XI): 11-13-13-x-x-x		C#5(IX): x-9-11-11-x-x

F#5: 2-4-4-x-x-x			F#5/F: x-9-11-10-x-x

B5: x-2-4-4-x-x		C#5: x-4-6-6-x-x		Eb5: x-6-8-8-x-x

	B5(VII)-B5(VII)-B5(VII)     <---- (mute the first one)


 C#5
                      I think I like it better now
B5 F#5(IX)
It doesn't matter anyhow, cuz that's the way it is.
F#5(IX)
You said hello
 C#5
                            Well where the hell you been?
 Eb5B5
                                    I said I feel like I've been off to war
 F#5C#5B5
                                and I may never be the same again
(verse)
I made my bed
But now I can't sleep at night
I'm tossin and turnin you know
you know it ain't right
I'd love to beg
See, but I'm just too proud.
And I don't even know what to say
so I'm thinking out loud
Chorus:
 B5B5B5C#5
                  And when you dream 17
 F#5
              I ain't there, so I don't care
 C#5
                  Cuz in all my dreams, I'm 23
 F#5C#5B5
                                    And she's the girl right next to me
 F#5C#5B5
                                 See that girl right next to me
(verse)
I lie in my bed
You're running through my head
Going over and over and over
the things that you said
I'm caught in the trap
I'll run like hell right back to you
Cuz it's over with you and you know it means drinking alone
(chorus)
And when you dream 17,
I ain't there, so I don't care.
Cuz in all my dreams, I'm 23,
And she's the girl right next to me.
See that girl right next to me.
 B5-B5-B5
          Solo:
F#5(IX)
e --11-11-11---11-11-11---11-11--|--11-11-11---11-11-11---11-11-----
B -/11-11-11--/11-11-11--/11-11--|-/11-11-11--/11-11-11--/11-11-----
G -------------------------------|----------------------------------
D -------------------------------|----------------------------------
A -------------------------------|----------------------------------
E -------------------------------|----------------------------------

F#5(IX)/F
e ---------------------------------------------
B ---------------------------------------------
G -13p11p9-11---11-13-11--13p11p9-11--13p11h13-
D ---------------------------------------------
A ---------------------------------------------
E ---------------------------------------------

 B5C#5
e -----------------------------------------------------
B -----------------------------------------------------
G -11----------11-----11-------------------------------
D ----13-11-13-----------13-11-13--11h13p11------------
A ------------------------------------------13-11-9----
E -----------------------------------------------------

 F#5
e ---------------------------------------------
B ---------------------------------------------
G --------------11-------------11--------------
D ------11--13------13--11--13-----------------
A -9/13----------------------------------------
E ---------------------------------------------

F#5(IX) F#5(IX)/F
e ----------------------------------------14--------------------------
B --------------------------------------------------------------------
G -11----------11--11--11-13-11--13-11-13b---r13--13--11----11-13-11--
D ----13-11-13-------13----------------------------------13-----------
A --------------------------------------------------------------------
E --------------------------------------------------------------------

 B5
                   >                      >
e  ----14p11-------------------------------------------------------
B ------------14p11-----------14p11--------------------------------
G --------------------13p11----------13p11--------13p11------------
D -----------------------------------------13p11-------------------
A -----------------------------------------------------------------
E -----------------------------------------------------------------

 C#5
              >                            >
e  ----------------------------------------------------------------
B --14p11------------------------14p11-----------------------------
G --------13p11--------13p11-----------13p11-------13p11-----------
D --------------13p11-------------------------13p11----------------
A -----------------------------------------------------------------
E -----------------------------------------------------------------

 F#5
e ---------------------------------------------------------------
B ---------------------------------------------------------------
G -(13)-13b(14)--(14)----(14)----13fb&r p11------11-13--11-------
D -----------------------------------------13--------------------
A ---------------------------------------------------------------
E ---------------------------------------------------------------

Eb5(XI) B5(VII) F#5
e -17b(18)-(18)-(18)r17p16p14--14---17b(18)p16p14-14---
B -----------------------------------------------------
G -----------------------------------------------------
D -----------------------------------------------------
A -----------------------------------------------------
E -----------------------------------------------------

 C#5B5
e -16-17b(18)p16p14--14p11----------------------
B -------------------------14p11----------------
G -------------------------------13--11---------
D ----------------------------------------------
A ----------------------------------------------
E ----------------------------------------------

(chorus)
And when you dream 17,
I ain't there, so I don't care.
Cuz in all my dreams, I'm 23,
And she's the girl right next to me.
See that girl right next to me.
(chorus)
And when you dream 17,
I ain't there, so I don't care.
Cuz in all my dreams, I'm 23,
And she's the girl right next to me.
See that girl right next to me.
 F#5C#5B5
                                  She's the girl right next to me.
 F#5C#5B5
                                 See that girl right next to me.
This file is copyright googoodolls@musicfanclubs.org, 1998. You are
free to use it for your personal or educational use, but permission must
be granted to post this transcription. Thank you.


B5 C#5 Eb5 F#5
variations - click chord images
Transpose chords:
Tuning:
Cool service:
View: Size:
A  A  A
Rating:
Layout:
  • Currently 2.7/5 Stars.
  • 1
  • 2
  • 3
  • 4
  • 5
 
Accuracy:
  • Currently 2.6/5 Stars.
  • 1
  • 2
  • 3
  • 4
  • 5
 
click stars to rate
Chordie recommends:
Learn to play songs at Jamplay.com with video guitar lessons
Songbook:
Login to add this song to your songbook
Support the artist
Preview/buy this song
MSN Music
Why this non-profit ad?

 
login to add comments/video/corrections