Chordie logo

Predictable    Good Charlotte



Predictable
Tuning ½ step down (eb, Bb, Gb, Db, Ab, Eb)
Gt.1= Billy
Gt.2= Benji

Intro Violin

Verse Gt.1 (0:17)
eb----13-12-|----13-12-----10-8-|
Bb-13-------|-13----------------|
Gb----------|-------------------|
Db----------|-------------------|
Ab---(x2)---|-------(x2)--------|
Eb----------|-------------------|

End Verse Gt.2 (0:37)
eb-------------------------|
Bb-------------------------|
Gb-10-10-10-10-10-10-10----|
Db-10-10-10-10-10-10-10-3~-|
Ab--7--7--7--7--8--8--8-3~-|
Eb----------------------1~-|

Chorus Gt.1 (0:40)
eb----------------------------------------------------
Bb----------------------------------------------------
Gb----------------------------------------------------
Db----0-2---0-2---0-2---0-2-----2-3---2-3---2-3---2-3-
Ab-33-----3-----3-----3-------------------------------
Eb---------------------------11-----1-----1-----1-----

Cont Gt.1
eb-----------------------------------------------------|
Bb-----------------------------------------------------|
Gb-----------------------------------------------------|
Db----2-4---2-4---2-4---2-4----2-3---2-3---2-3-5-3-2---|
Ab---------------------------------------------------3-|
Eb-22-----2-----2-----2-----11-----1-----1-------------|


Chorus Gt.2 (0:40)
eb-----------------------------------------------------------------|
Bb-----------------------------------------------------------------|
Gb-5555-555-555-55-------------------------------------------------|
Db-5555-555-555-55-3333-333-333-33-4444-444-444-44-3333-333-333-33-|
Ab-3333-333-333-33-3333-333-333-33-4444-444-444-44-3333-333-333-33-|
Eb-----------------1111-111-111-11-2222-222-222-22-1111-111-111-11-|

Break Gt.2 (1:03)
eb-----------------|
Bb-----------------|
Gb-22--22---22-----|
Db-22--22---22--33-|
Ab-00--00---00--33-|
Eb--------------11-|

Billy does this weird thing here at (1:07). He plucks the E, A and D strings
really sharply above the bridge, underneath the machine heads once.
It sounds good on some guitars but if it doesn't work on yours try this with
a sharp upward strum.

eb|-13~-|
Bb|-13~-|

Verse Gt.1 (same as Before)

Verse Gt.2 (1:08)
This is played with a phaser effect or lots of distortion.
eb---------------------------------|
Bb---------------------------------|
Gb-22-22-55-55-5-5-----------------|
Db-22-22-55-55-5-5-22-22-33-33-3-3-|
Ab-00-00-33-33-3-3-22-22-33-33-3-3-|
Eb-----------------00-00-11-11-1-1-|

End Verse Gt.2 (1:28)
eb-------|
Bb-------|
Gb-------|
Db-33-33-|
Ab-33-33-|
Eb-00-11-|
Chorus (1:31)

Bridge Both Guitars (1:54)
eb----------------------------------------------------------------|
Bb----------------------------------------------------------------|
Gb-222{S)-------------------------2-2-222-5-5-555-----------------|
Db-222{T)-3-3-333-4-4-444-3-3-333-2-2-222-5-5-555-4-4-444-3-3-333-|
Ab-000{O)-3-3-333-4-4-444-3-3-333-0-0-000-3-3-333-4-4-444-3-3-333-|
Eb----{P)-1-1-111-2-2-222-1-1-111-----------------2-2-222-1-1-111-|

eb-----------------------------------------------------------------|
Bb-----------------------------------------------------------------|
Gb-2-2-222-------------------------2-2-222-5-5-555-----------------|
Db-2-2-222-3-3-333-4-4-444-3-3-333-2-2-222-5-5-555-4-4-444-3-3-333-|
Ab-0-0-000-3-3-333-4-4-444-3-3-333-0-0-000-3-3-333-4-4-444-3-3-333-|
Eb---------1-1-111-2-2-222-1-1-111-----------------2-2-222-1-1-111-|

Break Gt.1 (With Phaser) (2:17)
eb-13----13----12----12----10----10----12----12----13----13----12----12----10----10-----|

Bb----13----13----13----13----13----13----13----13----13----13----13----13----13----13~-|
Gb--------------------------------------------------------------------------------------|
Db--------------------------------------------------------------------------------------|
Ab--------------------------------------------------------------------------------------|
Eb--------------------------------------------------------------------------------------|

Break Gt.2 (2:23)
eb-----------------|
Bb-----------------|
Gb-22--22---22-----|
Db-22--22---22--33-|
Ab-00--00---00--33-|
Eb--------------11-|

Chorus (2:28)
Slower Chorus (2:51)

Gt.1 Ending (3:03)
eb-------------------------------|
Bb-------------------------------|
Gb-----5--------5--------5-x-2~~-|
Db--5-5-5-5--5-5-5-5--5-5-5x-2~~-|
Ab-3-3---3----3---3--3-3---x-0~~-|
Eb-------------------------------|

Gt.2 Ending (3:03)
e-------------------|
B-------------------|
G-55--55---55--52~~-|
D-55--55---55--52~~-|
A-33--33---33--30~~-|
E-------------------|

That's basically it. If you have ne comments or corrections


Important: The song above is NOT stored on the Chordie server. The original song is hosted at www.xguitar.com. Chordie works as a search engine and provides on-the-fly formatting. Chordie does not index songs against artists/composers will. To remove this song please click here.

This song is displayed as text-only. Transposing and tuning is only available for chordpro-songs.

Login - add to songbook

Rating click stars to rate

Layout
Accuracy

SHARE PAGE  

You need to log in to post comments