Chordie logo

Screamer    Good Charlotte



Band: Good Charlotte
Album: Good Charlotte
Tabbed by: Craig L

Song: Screamer

Play this six times:

(This plays underneath the other one until he starts singing then again once before the chorus)

INTRO
Rifted #1

E-----------17-16-------- 17-16----------17-16----------17-16---------17-16---------17-16-------------------------
B-------17-------------17--------------17--------------17-------------17-------------17---------------------------------
G---16-------------16--------------16--------------16--------------16------------16-------------------------------------
D-----------------------------------------------------------------------------------------------------------------------------
A-----------------------------------------------------------------------------------------------------------------------------
E-----------------------------------------------------------------------------------------------------------------------------

VERSE/CHORUS
Rifted #2 

(In verse play this softly then put up he distortion for chorus)

E-x-----x----xx-x-----x---x---x-----x-----x----xx-x----x---x---x
B-x-----x----xx-x-----x---x---x-----x-----x----xx-x----x---x---x
G-9-----9----99-x-----x---x---x-----x-----x----xx-x----x---x---x
D-9-----9----99-x-----9---9---9-----7-----7----77-x----9---9---9
A-7-----7----77-x-----9---9---9-----7-----5----55-x----7---7---7


Important: The song above is NOT stored on the Chordie server. The original song is hosted at www.xguitar.com. Chordie works as a search engine and provides on-the-fly formatting. Chordie does not index songs against artists/composers will. To remove this song please click here.

This song is displayed as text-only. Transposing and tuning is only available for chordpro-songs.

Login - add to songbook

Rating click stars to rate

Layout
Accuracy

SHARE PAGE  

You need to log in to post comments