Guitar Tabs, Chords and Lyrics


Lampshade   Good Riddance



[www.fert.cjb.net]
I think this is the First tab of this song out there. Great Song and easy

Intro (Guitar 1)    |Guitar 2

E :-----------------|--------------------------------|
B :-----------------|--7-------5---------------------|
G :------x8---------|---7-------5--------------------|
D :-7---5-----------|----7-------5-------------------|
A :-5---3-----------|5-------3-----------------------|
E :-----------------|--------------------------------|
Verse (1 and 2)
e :-----------------|
B :-----------------|
G :-----------------|
D :-7----5----------|
A :-5----3----------|
E :-----------------|

Chorus

E:------------------------------------------------------|
B :-----------------------------------------------------|
G :---x6---x6----------------x6--x6---------------------|
D :-3----5------x6----x6--3----5------------------------|
A :-1----3----3----5------1----3---3-3-3-3-3-3-3-3-3----|
E :-----------1----3---------------1-1-1-1-1-1-1-1-1----|
Pm                                 ...   ...   ...

Bridge (A)x2
e :-----------------------------------------------------------------------|
B :-----------------------------------------------------------------------|
G :-----------------------------------------------------------------------|
D :-7-7-7-7-7---4-4-4-4-4---4-4-4-4-4-------------------------------------|
A :-5-5-5-5-5---2-2-2-2-2---2-2-2-2-2----7-7-7-7-7------------------------|
E :--------------------------------------5-5-5-5-5------------------------|
pm.........    ........    ........     ........

( Really Fast palm muting) (B) x2
e :-----------------------------------------------------|-----------------|
B :-----------------------------------------------------|-----------------|
G :---x8---------x8-------------------------------------|-----------------|
D :-7-----x8---4------x8--------------------------------|-----------------|
A :-5----5-----2----7-----------------------------------|-----------------|
E :------3----------5-----------------------------------|-----------------|
pm.............................................

Outro
(Guitar 1)          | (Guitar 2) for half the outro
E :-----------------|-----------------------------------------------------|
B :-----------------|---x8----x8----x8----x8----x8---x8-------------------|
G :-----------------|-11---12----11----12----11---12----12-11-9-7--^14----|
D :-7---5-----------|-----------------------------------------------------|
A :-5---3-----------|-----------------------------------------------------|


Important: The song above is NOT stored on the Chordie server. The original song is hosted at www.xguitar.com. Chordie works as a search engine and provides on-the-fly formatting. Chordie does not index songs against artists'/composers' will. To remove this song please click here.

This song is displayed as text-only. Transposing and tuning is only available for chordpro-songs.

Login - add to songbook

Rating click stars to rate

Layout
Accuracy

SHARE PAGE  




You need to log in to post comments