Guitar Tabs, Chords and Lyrics


Dylan  Good Riddance

        [A#]        [A]        [F]        [D#]        [G]                                                                                                                        
e|-------------------------------------------|
B|-------------------------------------------|
G|----------------------10------8------------|
D|------8-------7-------10------8-------5----|
A|------8-------7-------8-------6-------5----|
E|------6-------5-----------------------3----|


The D# riff:

e|--------------------|
B|--------------------|
G|-------8-----8------|
D|-----8-----8---8----|
A|---6-----6-------6--|
E|--------------------|


The A#ii riff:

e|-------------------------|
B|--------11------11-------|
G|-----10------10----10----|
D|---8-------8----------8--|
A|-------------------------|
E|-------------------------|



[A#] I heard you [A]threw your [F]phone away
(the D# riff) A# F
A brave attempt at dodging sympathy

And maybe you're [A#]right

Who needs checking [A]up on [F]anyway?
(the D# riff)
But I remember when I felt my worst

Its [A#]friends like you I [A]called on first

[D#]    [D#]    [F]                            
[A#] The shadows of [A]what [F]seemed so sure
(the D# riff)
Haunt you as you tread alone

The [A#]empty house you [F]bought with her

[A#] But even w[A]hen you're [F]torn apart
(the D# riff)
Worlds away I feel your pain

And [A#]carry you in[D#]side my heart

[A#]    [A]    [G]                            
[G] I will search my ac[D#]quaintance
(the A#ii riff)
For a close-lipped friend

With strength and under[D]standing

When I think Ive reached my [D#]end
e|------------------------------|
B|------------------------------|
G|-------------------------10---|
D|-------------------8----------|
A|---------8--------------------|
E|------------------------------|

I want to hear your voice again


And it would be so sad
If I learned you never even tried to call me up
But its not so bad
When you remember you've got friends to pick you up

Rhythm Guitar Plays:
A# F D# A# x2

Lead Guitar Plays (x2):

e|----------------------------------------|
B|----------------------------------------|
G|--15-15-15--14--12--10-10-10-10---------|
D|--xx-xx-xx--xx--xx--x--x--x--x----------|
A|--13-13-13--12--10--8--8--8--8----------|
E|----------------------------------------|
e|---------------------------------------|
B|---------------------------------------|
G|--15-15-15--14--17--15-14--12--14--15--|
D|--xx-xx-xx--xx--xx--xx-xx--xx--xx--xx--|
A|--13-13-13--12--15--13-12--10--12--13--|
E|---------------------------------------|
e|-----------------------------------|
B|-----------------------------------|
G|--10-10-10-10-10-10--8-8-8-8-8-8---|
D|--x--x--x--x--x--x---x-x-x-x-x-x---|
A|--8--8--8--8--8--8---6-6-6-6-6-6---|
E|-----------------------------------|


Important: The song above is NOT stored on the Chordie server. The original song is hosted at www.xguitar.com. Chordie works as a search engine and provides on-the-fly formatting. Chordie does not index songs against artists'/composers' will. To remove this song please click here.

Text color:
Chord color:
Chord grids: 
Font size:    
Page size: 

A A# D D# F G
variations - click chord images

Login - add to songbook

Transpose chords

Tuning

Rating click stars to rate

Layout
Accuracy

SHARE PAGE  




You need to log in to post comments