Guitar Tabs, Chords and Lyrics


There's No I in Team  Good Riddance

e|--------------------------------------------------------------------------------|


B|--------------------------------------------------------------------------------|


G|------8-----------------------------------------------5-------7-------7---------|

D|------8-------5-------10------6-------8-------11------x-------x-------x---------|
A|------6-------5-------10------6-------8-------11------3-------5-------6---------|
E|--------------3-------8-------4-------6-------9---------------------------------|
        [C]                                                                                                                                                
e|------------|
B|------------|
G|------5-----|
D|------5-----|
A|------3-----|
E|------------|

if you prefer

Intro Rhythm Guitar Chords:

[D#](quic[G]kly) [A#]A#  G#  G

Here it is in tab to give a better idea of the rhythm:

e|----------------------------------------------------------------|
B|----------------------------------------------------------------|
G|------8-8-8-8-8-8-----------------------------------------------|
D|------8-8-8-8-8-8--5-5-5-5-5-5--10-10-10-10-10-10--6-6-6-6-6-6--|
A|------6-6-6-6-6-6--5-5-5-5-5-5--10-10-10-10-10-10--6-6-6-6-6-6--|
E|-------------------3-3-3-3-3-3--8--8--8--8--8--8---4-4-4-4-4-4--|
e|--------------------------------------------------------------|
B|--------------------------------------------------------------|
G|------8-8-8-8-8-8---------------------------------------------|
D|------8-8-8-8-8-8--5-5-5-5-5-5--8-8-8-8-8-8-8-8--8--6--5------|
A|------6-6-6-6-6-6--5-5-5-5-5-5--8-8-8-8-8-8-8-8--8--6--5------|
E|-------------------3-3-3-3-3-3--6-6-6-6-6-6-6-6--6--4--3------|



Before the verse play:

e|----------------------------------------------------------------|
B|----------------------------------------------------------------|
G|------8-8-8-8-8-8-----------------------------------------------|
D|------8-8-8-8-8-8--5-5-5-5-5-5--10--8--6--5--6---8~-------------|
A|------6-6-6-6-6-6--5-5-5-5-5-5--10--8--6--5--6---8~-let-ring----|
E|-------------------3-3-3-3-3-3--8---6--4--3--4---6~-------------|



Intro Lead Guitar:

e|-----------------------------------8---6--------|
B|--8-8-8-8-8-8-8-8-8-6---6----8-8-8---------9----|
G|----------------------8---8---------------------|
D|------------------------------------------------|
A|------------------------------------------------|
E|------------------------------------------------|
e|--------------------8-6----------|
B|--8-8-8-8-8-8-8-8-8-----9p8-9----|
G|---------------------------------|
D|---------------------------------|
A|---------------------------------|
E|---------------------------------|



Verse:
I can still remember times
Of prosperity while staring clear eyed
With broad strokes of promise

We coloured [A#]highlights of our future[G#] and[G]

[D#] something we'll [G]never get
Until [C]we look back with [G#]sincere regret
As our a[D#]merican dreams are [G]subject to
col[A#]lapse beneath their [C#]density
Chorus:

C A# G# Co Do D#o
And we'll break before we bend Lead Guitar: And we'll break before we bend

With [D#]tomorrow as yet [A#]undetermined

C A# G# Co Do D#o
You can write your congressmen Lead Guitar: You can write your congressmen

And take your [D#]grievences to the [A#]highest level

C A# G# Co Do D#o
To achieve a common end Lead Guitar: To achieve a common end

D# A# G# (left hand muting off & on)
To serve the bourgeois, the laissez-faire


Lead Guitar:

e|-----------------------|
B|--9-8--9-8h9-----------|
G|-------------------8~--|
D|-----------------------|
A|-----------------------|
E|-----------------------|



Verse:
Citizens [D#]duty-bound so we [G]play our part

If you [C]kill the brain then you'll [G#]stop the heart

And we [D#]foster the [G]illusion of a
[A#]Democratic arche[G#]type[G]
Can we [D#]forge hope from this [G]devastation
And [C]bring about [G#]participation
To [D]stem the a[G]pathetic tide
Now [A#]poised to wash us all away  [C#]
Chorus:
(I've only included the lyrics, the chords are the same)

And we break before we bend
With tomorrow as yet undetermined
We achieve such selfish ends
'Till we concern ourselves with the plight of others
you can write your congressmen
And ***ing spit in the wind
For all the good it'll do you friend

[D#]                                     
Bridge:

We havent got the luxury

Of neutral observation

'Cause when its said and done

B|-------------------8---|

We stand or fall as one

G|-------------------------8---|

And though the situations grave

B|-------------------------6h8-----|
G|-----------------------------8---|

I think its worth the risk to save

This notion of the free

And the asylum of the [A#]brave

Outro (left hand muting off & on):

[D#]    [G#]    [C]   [A#]                          
Lead Guitar:

e|------------------------------------------------------|
B|-----------------------------------------6-6-6-8-6----|
G|-8-8-8-8-8-8-8-8-7-7-7-7-8-8-8-8-8-8-8-8-----------8--|       x2
D|------------------------------------------------------|
A|------------------------------------------------------|
E|------------------------------------------------------|


End on D#

Important: The song above is NOT stored on the Chordie server. The original song is hosted at www.xguitar.com. Chordie works as a search engine and provides on-the-fly formatting. Chordie does not index songs against artists'/composers' will. To remove this song please click here.

Text color:
Chord color:
Chord grids: 
Font size:    
Page size: 

A# C C# D D# G G#
variations - click chord images

Login - add to songbook

Transpose chords

Tuning

Rating click stars to rate

Layout
Accuracy

SHARE PAGE  




You need to log in to post comments