Guitar Tabs, Chords and Lyrics


All Fall Down   Good Riddance



----------------------------------------------------------------
Good Riddance - all fall down
----------------------------------------------------------------

e-|----------------------------------------------------------------|
B-|----------------------------------------------------------------|
G-|----------------------------------------------------------------|
D-|-7-7-7-7-7-7----------------------------------5-5-7-7-7-7-7-7-7-|
A-|-5-5-5-5-5-5-6-6-8-8-8-8-8-8--6-6-8-8-8-8-8-8-3-3-5-5-5-5-5-5-5-|
E-|-------------4-4-6-6-6-6-6-6--4-4-6-6-6-6-6-6-------------------|

e-|----------------------------------------------------------------
B-|----------------------------------------------------------------
G-|----------------------------------------------------------------
D-|-7-7-7-7-7-7----------------------------------5-5-7-7-7-7-7-7-7-
A-|-5-5-5-5-5-5-6-6-8-8-8-8-8-8--6-6-8-8-8-8-8-8-3-3-5-5-5-5-5-5-5-
E-|-------------4-4-6-6-6-6-6-6--4-4-6-6-6-6-6-6-------------------

e-|----------------------------------------------------------------|
B-|----------------------------------------------------------------|
G-|----------------------------------------------------------------|
D-|-7-7-7-7-7-7----------------------------------5-5-7-7-7-7-7-7-7-|
A-|-5-5-5-5-5-5-6-6-8-8-8-8-8-8--6-6-8-8-8-8-8-8-3-3-5-5-5-5-5-5-5-|
E-|-------------4-4-6-6-6-6-6-6--4-4-6-6-6-6-6-6-------------------|

e-|-----------------------------------------------------------------
B-|-----------------------------------------------------------------
G-|-----------------------------------------------------------------
D-|-----------------7-7-7-7-------------------------7-7-7-7---------
A-|-3-3-3-3-7-7-7-7-5-5-5-5-5-5-5-5-3-3-3-3-7-7-7-7-5-5-5-5-5-5-5-5-
E-|-1-1-1-1-5-5-5-5---------3-3-3-3-1-1-1-1-5-5-5-5---------3-3-3-3-

e-|-----------------------------------------------------------------|
B-|-----------------------------------------------------------------|
G-|-----------------------------------------------------------------|
D-|-----------------7-7-7-7-------------------------7-7-7-7-7-7-7-7-|
A-|-3-3-3-3-7-7-7-7-5-5-5-5-5-5-5-5-3-3-3-3-7-7-7-7-5-5-5-5-5-5-5-5-|
E-|-1-1-1-1-5-5-5-5---------3-3-3-3-1-1-1-1-5-5-5-5-----------------|

e-|----------------------------------------------------------------
B-|----------------------------------------------------------------
G-|----------------------------------------------------------------
D-|-7-7-7-7-7-7----------------------------------5-5-7-7-7-7-7-7-7-
A-|-5-5-5-5-5-5-6-6-8-8-8-8-8-8--6-6-8-8-8-8-8-8-3-3-5-5-5-5-5-5-5-
E-|-------------4-4-6-6-6-6-6-6--4-4-6-6-6-6-6-6-------------------

e-|----------------------------------------------------------------|
B-|----------------------------------------------------------------|
G-|----------------------------------------------------------------|
D-|-7-7-7-7-7-7----------------------------------5-5-7-7-7-7-7-7-7-|
A-|-5-5-5-5-5-5-6-6-8-8-8-8-8-8--6-6-8-8-8-8-8-8-3-3-5-5-5-5-5-5-5-|
E-|-------------4-4-6-6-6-6-6-6--4-4-6-6-6-6-6-6-------------------|

e-|-----------------------------------------------------------------
B-|-----------------------------------------------------------------
G-|-----------------------------------------------------------------
D-|-----------------7-7-7-7-------------------------7-7-7-7---------
A-|-3-3-3-3-7-7-7-7-5-5-5-5-5-5-5-5-3-3-3-3-7-7-7-7-5-5-5-5-5-5-5-5-
E-|-1-1-1-1-5-5-5-5---------3-3-3-3-1-1-1-1-5-5-5-5---------3-3-3-3-

e-|-----------------------------------------------------------------|
B-|-----------------------------------------------------------------|
G-|-----------------------------------------------------------------|
D-|-----------------7-7-7-7-------------------------7-7-7-7-7-7-7-7-|
A-|-3-3-3-3-7-7-7-7-5-5-5-5-5-5-5-5-3-3-3-3-7-7-7-7-5-5-5-5-5-5-5-5-|
E-|-1-1-1-1-5-5-5-5---------3-3-3-3-1-1-1-1-5-5-5-5-----------------|

e-|-----------------------------------------------------------------
B-|-----------------------------------------------------------------
G-|-----------------------------------------------------------------
D-|-7-7-7-7-------------------------7-7-7-7-------------------------
A-|-5-5-5-5-3-3-3-3-7-7-7-7-7-7-7-7-5-5-5-5-3-3-3-3-7-7-7-7-7-7-7-7-
E-|---------1-1-1-1-5-5-5-5-5-5-5-5---------1-1-1-1-5-5-5-5-5-5-5-5-

e-|--------------------------------------------------------------------|
B-|--------------------------------------------------------------------|
G-|--------------------------------------------------------------------|
D-|-7-7-7-7-------------------------7-7-7-7--------------------------7-|
A-|-5-5-5-5-3-3-3-3-7-7-7-7-7-7-7-7-5-5-5-5-3-3-3-3-7-7-7-7-7-7-7-7--5-|
E-|---------1-1-1-1-5-5-5-5-5-5-5-5---------1-1-1-1-5-5-5-5-5-5-5-5----|
just.play.around.with.harmonics.here...really.it.doesn't.take.much.to.
figure.which.ones.he.plays.
e-|----------------------------------------------------------------
B-|----------------------------------------------------------------
G-|----------------------------------------------------------------
D-|-7-7-7-7-7-7----------------------------------5-5-7-7-7-7-7-7-7-
A-|-5-5-5-5-5-5-6-6-8-8-8-8-8-8--6-6-8-8-8-8-8-8-3-3-5-5-5-5-5-5-5-
E-|-------------4-4-6-6-6-6-6-6--4-4-6-6-6-6-6-6-------------------

e-|----------------------------------------------------------------|
B-|----------------------------------------------------------------|
G-|----------------------------------------------------------------|
D-|-7-7-7-7-7-7----------------------------------5-5-7-7-7-7-7-7-7-|
A-|-5-5-5-5-5-5-6-6-8-8-8-8-8-8--6-6-8-8-8-8-8-8-3-3-5-5-5-5-5-5-5-|
E-|-------------4-4-6-6-6-6-6-6--4-4-6-6-6-6-6-6-------------------|

e-|-----------------------------------------------------------------
B-|-----------------------------------------------------------------
G-|-----------------------------------------------------------------
D-|-----------------7-7-7-7-------------------------7-7-7-7---------
A-|-3-3-3-3-7-7-7-7-5-5-5-5-5-5-5-5-3-3-3-3-7-7-7-7-5-5-5-5-5-5-5-5-
E-|-1-1-1-1-5-5-5-5---------3-3-3-3-1-1-1-1-5-5-5-5---------3-3-3-3-

e-|-----------------------------------------------------------------|
B-|-----------------------------------------------------------------|
G-|-----------------------------------------------------------------|
D-|-----------------7-7-7-7-------------------------7-7-7-7-7-7-7-7-|
A-|-3-3-3-3-7-7-7-7-5-5-5-5-5-5-5-5-3-3-3-3-7-7-7-7-5-5-5-5-5-5-5-5-|
E-|-1-1-1-1-5-5-5-5---------3-3-3-3-1-1-1-1-5-5-5-5-----------------|

----------------------------------------------------------------


Important: The song above is NOT stored on the Chordie server. The original song is hosted at www.xguitar.com. Chordie works as a search engine and provides on-the-fly formatting. Chordie does not index songs against artists'/composers' will. To remove this song please click here.

This song is displayed as text-only. Transposing and tuning is only available for chordpro-songs.

Login - add to songbook

Rating click stars to rate

Layout
Accuracy

SHARE PAGE  




You need to log in to post comments