Guitar Tabs, Chords and Lyrics


Better   Good Riddance



----------------------------------------------------------------
Good Riddance - better
----------------------------------------------------------------

e-|----------------------------|
B-|----------------------------|
G-|----------------------------|
D-|-------------6-8------------|
A-|-8--6--4--3--4-6-8--6--4--3-|
E-|-6--4--2--1------6--4--2--1-|

e-|-------------------------------------------------------------
B-|-------------------------------------------------------------
G-|-------------------------------------------------------------
D-|---------------------------------------------------------6---
A-|-8-8-8-8-8-8-8-8-6-6-6-6-6-6-6-6-4-4-4-4-4-4-4-4-3-3-3-3-4-6-
E-|-6-6-6-6-6-6-6-6-4-4-4-4-4-4-4-4-2-2-2-2-2-2-2-2-1-1-1-1---4-

e-|-------------------------------------------------------------
B-|-------------------------------------------------------------
G-|-------------------------------------------------------------
D-|---------------------------------------------------------6---
A-|-8-8-8-8-8-8-8-8-6-6-6-6-6-6-6-6-4-4-4-4-4-4-4-4-3-3-3-3-4-6-
E-|-6-6-6-6-6-6-6-6-4-4-4-4-4-4-4-4-2-2-2-2-2-2-2-2-1-1-1-1---4-

e-|-------------------------------------------------------------
B-|-------------------------------------------------------------
G-|-------------------------------------------------------------
D-|---------------------------------------------------------6---
A-|-8-8-8-8-8-8-8-8-6-6-6-6-6-6-6-6-4-4-4-4-4-4-4-4-3-3-3-3-4-6-
E-|-6-6-6-6-6-6-6-6-4-4-4-4-4-4-4-4-2-2-2-2-2-2-2-2-1-1-1-1---4-

e-|---------------------------------------------------------------------|
B-|---------------------------------------------------------------------|
G-|---------------------------------------------------------------------|
D-|---------------------------------------------------------------------|
A-|-8-8-8-8-8-8-8-8-6-6-6-6-6-6-6-6-4-4-4-4-4-4-4-4-3-3-3-3-3-3-3-3-3-3-|
E-|-6-6-6-6-6-6-6-6-4-4-4-4-4-4-4-4-2-2-2-2-2-2-2-2-1-1-1-1-1-1-1-1-1-1-|

e-|-------------------------------------------------------------------
B-|-------------------------------------------------------------------
G-|-------------------------------------------------------------------
D-|-6-6-6-6-6-6-6-6-6-6-6-6-6-6-6-6-6---------------------------------
A-|-4-4-4-4-4-4-4-4-4-4-4-4-4-4-4-4-4-6-6-6-6-6-6-6-6-6-6-6-6-6-6-6-6-
E-|-----------------------------------4-4-4-4-4-4-4-4-4-4-4-4-4-4-4-4-

e-|--------------------------------------------------------------------
B-|--------------------------------------------------------------------
G-|--------------------------------------------------------------------
D-|-------------------------------11-11-11-11-11-11-11-11-11-11-11-11--
A-|-8-x-x-x-x-x-x-9-9-9-9-8-8-8-8--9--9--9--9--9--9--9--9--9--9--9--9--
E-|-6-x-x-x-x-x-x------------------------------------------------------

e-|-------------------------------------------------------------------
B-|-------------------------------------------------------------------
G-|-------------------------------------------------------------------
D-|-6-x-x-x-x-x-x-x-x-x-x-x-x-x-x-x-----------------------------------
A-|-4-x-x-x-x-x-x-x-x-x-x-x-x-x-x-x-6-x-x-x-x-x-x-x-x-x-x-x-x-x-x-x-x-
E-|---------------------------------4-x-x-x-x-x-x-x-x-x-x-x-x-x-x-x-x-

e-|--------------------------------------------|
B-|--------------------------------------------|
G-|--------------------------------------------|
D-|-------------------------------6-6-6-6--5-6-|
A-|-8-8-8-8-8-8-8-9-9-9-9-8-8-8-8-4-4-4-4--3-4-|
E-|-6------------------------------------------|

e-|-------------------------------------------------------------
B-|-------------------------------------------------------------
G-|-------------------------------------------------------------
D-|---------------------------------------------------------6---
A-|-8-8-8-8-8-8-8-8-6-6-6-6-6-6-6-6-4-4-4-4-4-4-4-4-3-3-3-3-4-6-
E-|-6-6-6-6-6-6-6-6-4-4-4-4-4-4-4-4-2-2-2-2-2-2-2-2-1-1-1-1---4-

e-|-------------------------------------------------------------
B-|-------------------------------------------------------------
G-|-------------------------------------------------------------
D-|---------------------------------------------------------6---
A-|-8-8-8-8-8-8-8-8-6-6-6-6-6-6-6-6-4-4-4-4-4-4-4-4-3-3-3-3-4-6-
E-|-6-6-6-6-6-6-6-6-4-4-4-4-4-4-4-4-2-2-2-2-2-2-2-2-1-1-1-1---4-

e-|-------------------------------------------------------------
B-|-------------------------------------------------------------
G-|-------------------------------------------------------------
D-|---------------------------------------------------------6---
A-|-8-8-8-8-8-8-8-8-6-6-6-6-6-6-6-6-4-4-4-4-4-4-4-4-3-3-3-3-4-6-
E-|-6-6-6-6-6-6-6-6-4-4-4-4-4-4-4-4-2-2-2-2-2-2-2-2-1-1-1-1---4-

e-|---------------------------------------------------------------------|
B-|---------------------------------------------------------------------|
G-|---------------------------------------------------------------------|
D-|---------------------------------------------------------------------|
A-|-8-8-8-8-8-8-8-8-6-6-6-6-6-6-6-6-4-4-4-4-4-4-4-4-3-3-3-3-3-3-3-3-3-3-|
E-|-6-6-6-6-6-6-6-6-4-4-4-4-4-4-4-4-2-2-2-2-2-2-2-2-1-1-1-1-1-1-1-1-1-1-|

e-|-------------------------------------------------------------------
B-|-------------------------------------------------------------------
G-|-------------------------------------------------------------------
D-|-6-6-6-6-6-6-6-6-6-6-6-6-6-6-6-6-6---------------------------------
A-|-4-4-4-4-4-4-4-4-4-4-4-4-4-4-4-4-4-6-6-6-6-6-6-6-6-6-6-6-6-6-6-6-6-
E-|-----------------------------------4-4-4-4-4-4-4-4-4-4-4-4-4-4-4-4-

e-|--------------------------------------------------------------------
B-|--------------------------------------------------------------------
G-|--------------------------------------------------------------------
D-|-------------------------------11-11-11-11-11-11-11-11-11-11-11-11--
A-|-8-x-x-x-x-x-x-9-9-9-9-8-8-8-8--9--9--9--9--9--9--9--9--9--9--9--9--
E-|-6-x-x-x-x-x-x------------------------------------------------------

e-|-------------------------------------------------------------------
B-|-------------------------------------------------------------------
G-|-------------------------------------------------------------------
D-|-6-x-x-x-x-x-x-x-x-x-x-x-x-x-x-x-----------------------------------
A-|-4-x-x-x-x-x-x-x-x-x-x-x-x-x-x-x-6-x-x-x-x-x-x-x-x-x-x-x-x-x-x-x-x-
E-|---------------------------------4-x-x-x-x-x-x-x-x-x-x-x-x-x-x-x-x-

e-|--------------------------------------------|
B-|--------------------------------------------|
G-|--------------------------------------------|
D-|-------------------------------6-6-6-6--5-6-|
A-|-8-8-8-8-8-8-8-9-9-9-9-8-8-8-8-4-4-4-4--3-4-|
E-|-6------------------------------------------|

e-|-----------------------------------------------------------------
B-|-----------------------------------------------------------------
G-|-----------------------------------------------------------------
D-|-------------------------6-5-5-5-------------------------6-5-5-5-
A-|-8-8-8-8-4-4-4-4-3-3-3-3-4-3-3-3-8-8-8-8-4-4-4-4-3-3-3-3-4-3-3-3-
E-|-6-6-6-6-2-2-2-2-1-1-1-1---------6-6-6-6-2-2-2-2-1-1-1-1---------

e-|-----------------------------------------------------------------|
B-|-----------------------------------------------------------------|
G-|-----------------------------------------------------------------|
D-|-------------------------6-5-5-5-------------------------6-5-5-5-|
A-|-8-8-8-8-4-4-4-4-3-3-3-3-4-3-3-3-8-8-8-8-4-4-4-4-3-3-3-3-4-3-3-3-|
E-|-6-6-6-6-2-2-2-2-1-1-1-1---------6-6-6-6-2-2-2-2-1-1-1-1---------|

e-|-------------------------------------------------------------------------|
B-|-------------------------------------------------------------------------|
G-|-------------------------------------------------------------------------|
D-|---------6-6-6-6-8-8-8-8-10-10-10-10---------6-6-6-6-8-8-8-8-10-10-10-10-|
A-|-8-8-8-8-4-4-4-4-6-6-6-6--8--8--8--8-8-8-8-8-4-4-4-4-6-6-6-6--8--8--8--8-|
E-|-6-6-6-6-----------------------------6-6-6-6-----------------------------|

e-|-------------------------------------------------------------
B-|-------------------------------------------------------------
G-|-------------------------------------------------------------
D-|---------------------------------------------------------6---
A-|-8-8-8-8-8-8-8-8-6-6-6-6-6-6-6-6-4-4-4-4-4-4-4-4-3-3-3-3-4-6-
E-|-6-6-6-6-6-6-6-6-4-4-4-4-4-4-4-4-2-2-2-2-2-2-2-2-1-1-1-1---4-

e-|-------------------------------------------------------------
B-|-------------------------------------------------------------
G-|-------------------------------------------------------------
D-|---------------------------------------------------------6---
A-|-8-8-8-8-8-8-8-8-6-6-6-6-6-6-6-6-4-4-4-4-4-4-4-4-3-3-3-3-4-6-
E-|-6-6-6-6-6-6-6-6-4-4-4-4-4-4-4-4-2-2-2-2-2-2-2-2-1-1-1-1---4-

e-|-------------------------------------------------------------
B-|-------------------------------------------------------------
G-|-------------------------------------------------------------
D-|---------------------------------------------------------6---
A-|-8-8-8-8-8-8-8-8-6-6-6-6-6-6-6-6-4-4-4-4-4-4-4-4-3-3-3-3-4-6-
E-|-6-6-6-6-6-6-6-6-4-4-4-4-4-4-4-4-2-2-2-2-2-2-2-2-1-1-1-1---4-

e-|---------------------------------------------------------------|
B-|---------------------------------------------------------------|
G-|---------------------------------------------------------------|
D-|---------------------------------------------------------6-----|
A-|-8-8-8-8-8-8-8-8-6-6-6-6-6-6-6-6-4-4-4-4-4-4-4-4-3-3-3-3-4-6-8-|
E-|-6-6-6-6-6-6-6-6-4-4-4-4-4-4-4-4-2-2-2-2-2-2-2-2-1-1-1-1---4-6-|

----------------------------------------------------------------


Important: The song above is NOT stored on the Chordie server. The original song is hosted at www.xguitar.com. Chordie works as a search engine and provides on-the-fly formatting. Chordie does not index songs against artists'/composers' will. To remove this song please click here.

This song is displayed as text-only. Transposing and tuning is only available for chordpro-songs.

Login - add to songbook

Rating click stars to rate

Layout
Accuracy

SHARE PAGE  




You need to log in to post comments