Guitar Tabs, Chords and Lyrics


Decoy   Good Riddance



----------------------------------------------------------------
Good Riddance - decoy
----------------------------------------------------------------

e-|---------|---------------------------------------------------------------|
B-|---------|---------------------------------------------------------------|
G-|---------|---------------------------------------------------------------|
D-|-------6-|-----------------------6-6-6-6---------10-10-10-10-6-6-6-8-8-8-|
A-|-6-6-3-4-|-6-6-6-3-3-3-3-4-4-4-4-4-4-4-4-6-6-6-6--8--8--8--8-4-4-4-6-6-6-|
E-|-4-4-1---|-4-4-4-1-1-1-1-2-2-2-2---------4-4-4-4-------------------------|

e-|---------------------------------------------------------------
B-|---------------------------------------------------------------
G-|---------------------------------------------------------------
D-|-------------------------------6-x-x-x-x-x-x-x-8-x-x-x-x-x-x-x-
A-|-6-x-x-x-x-x-x-3-x-x-x-x-x-x-x-4-x-x-x-x-x-x-x-6-x-x-x-x-x-x-x-
E-|-4-x-x-x-x-x-x-1-x-x-x-x-x-x-x---------------------------------

e-|---------------------------------------------------------------
B-|---------------------------------------------------------------
G-|---------------------------------------------------------------
D-|-------------------------------6-x-x-x-x-x-x-x-8-x-x-x-x-x-x-x-
A-|-6-x-x-x-x-x-x-3-x-x-x-x-x-x-x-4-x-x-x-x-x-x-x-6-x-x-x-x-x-x-x-
E-|-4-x-x-x-x-x-x-1-x-x-x-x-x-x-x---------------------------------

e-|---------------------------------------------------------------
B-|---------------------------------------------------------------
G-|---------------------------------------------------------------
D-|-------------------------------6-x-x-x-x-x-x-x-8-x-x-x-x-x-x-x-
A-|-6-x-x-x-x-x-x-3-x-x-x-x-x-x-x-4-x-x-x-x-x-x-x-6-x-x-x-x-x-x-x-
E-|-4-x-x-x-x-x-x-1-x-x-x-x-x-x-x---------------------------------

e-|---------------------------------------------------------------|
B-|---------------------------------------------------------------|
G-|---------------------------------------------------------------|
D-|-------------------------------6-x-x-x-x-x-x-x-8-x-x-x-x-x-x-x-|
A-|-6-x-x-x-x-x-x-3-x-x-x-x-x-x-x-4-x-x-x-x-x-x-x-6-x-x-x-x-x-x-x-|
E-|-4-x-x-x-x-x-x-1-x-x-x-x-x-x-x---------------------------------|

e-|-----------------------------------------------------------------
B-|-----------------------------------------------------------------
G-|-----------------------------------------------------------------
D-|---------------------------------6-6-6-6-6-6-6-6-8-8-8-8-8-8-8-8-
A-|-6-6-6-6-6-6-6-6-3-3-3-3-3-3-3-3-4-4-4-4-4-4-4-4-6-6-6-6-6-6-6-6-
E-|-4-4-4-4-4-4-4-4-1-1-1-1-1-1-1-1---------------------------------

e-|---------------------------------------------------------------|
B-|---------------------------------------------------------------|
G-|---------------------------------------------------------------|
D-|-----------------10-10-10-10-10-10-10-10-6-6-6-6-6-6-6-6-------|
A-|-6-6-6-6-6-6-6-6--8--8--8--8--8--8--8--8-4-4-4-4-4-4-4-4-4-4-4-|
E-|-4-4-4-4-4-4-4-4-----------------------------------------2-2-2-|

e-|-----------------------------------------------------------------
B-|-----------------------------------------------------------------
G-|-----------------------------------------------------------------
D-|---------------------------------6-6-6-6-6-6-6-6-8-8-8-8-8-8-8-8-
A-|-6-6-6-6-6-6-6-6-3-3-3-3-3-3-3-3-4-4-4-4-4-4-4-4-6-6-6-6-6-6-6-6-
E-|-4-4-4-4-4-4-4-4-1-1-1-1-1-1-1-1---------------------------------

e-|-------------------------------------------------------------------------|
B-|-------------------------------------------------------------------------|
G-|-------------------------------------------------------------------------|
D-|-----------------10-10-10-10-10-10-10-10-6-6-6-6-6-6-6-6-8-8-8-8-8-8-8-8-|
A-|-6-6-6-6-6-6-6-6--8--8--8--8--8--8--8--8-4-4-4-4-4-4-4-4-6-6-6-6-6-6-6-6-|
E-|-4-4-4-4-4-4-4-4---------------------------------------------------------|

e-|-----------------------------------------------------------------
B-|-----------------------------------------------------------------
G-|-----------------------------------------------------------------
D-|---------------------------------6-x-x-x-x-x-x-x-8-x-x-x-x-x-x-x-
A-|-6-x-x-x-x-x-x-x-3-x-x-x-x-x-x-x-4---------------6---------------
E-|-4-x-x-x-x-x-x-x-1-x-x-x-x-x-x-x---------------------------------

e-|-----------------------------------------------------------------|
B-|-----------------------------------------------------------------|
G-|-----------------------------------------------------------------|
D-|---------------------------------6-x-x-x-x-x-x-x-8-x-x-x-x-x-x-x-|
A-|-6-x-x-x-x-x-x-x-3-x-x-x-x-x-x-x-4---------------6---------------|
E-|-4-x-x-x-x-x-x-x-1-x-x-x-x-x-x-x---------------------------------|

e-|-----------------------------------------------------------------
B-|-----------------------------------------------------------------
G-|-----------------------------------------------------------------
D-|---------------------------------6-6-6-6-6-6-6-6-8-8-8-8-8-8-8-8-
A-|-6-6-6-6-6-6-6-6-3-3-3-3-3-3-3-3-4-4-4-4-4-4-4-4-6-6-6-6-6-6-6-6-
E-|-4-4-4-4-4-4-4-4-1-1-1-1-1-1-1-1---------------------------------

e-|-------------------------------------------------------------------------|
B-|-------------------------------------------------------------------------|
G-|-------------------------------------------------------------------------|
D-|-----------------10-10-10-10-10-10-10-10-6-6-6-6-6-6-6-6-8-8-8-8-8-8-8-8-|
A-|-6-6-6-6-6-6-6-6--8--8--8--8--8--8--8--8-4-4-4-4-4-4-4-4-6-6-6-6-6-6-6-6-|
E-|-4-4-4-4-4-4-4-4---------------------------------------------------------|

e-|---------------------------------------------------------------
B-|---------------------------------------------------------------
G-|---------------------------------------------------------------
D-|-------------------------------6-x-x-x-x-x-x-x-8-x-x-x-x-x-x-x-
A-|-6-x-x-x-x-x-x-3-x-x-x-x-x-x-x-4-x-x-x-x-x-x-x-6-x-x-x-x-x-x-x-
E-|-4-x-x-x-x-x-x-1-x-x-x-x-x-x-x---------------------------------

e-|---------------------------------------------------------------
B-|---------------------------------------------------------------
G-|---------------------------------------------------------------
D-|-------------------------------6-x-x-x-x-x-x-x-8-x-x-x-x-x-x-x-
A-|-6-x-x-x-x-x-x-3-x-x-x-x-x-x-x-4-x-x-x-x-x-x-x-6-x-x-x-x-x-x-x-
E-|-4-x-x-x-x-x-x-1-x-x-x-x-x-x-x---------------------------------

e-|---------------------------------------------------------------
B-|---------------------------------------------------------------
G-|---------------------------------------------------------------
D-|-------------------------------6-x-x-x-x-x-x-x-8-x-x-x-x-x-x-x-
A-|-6-x-x-x-x-x-x-3-x-x-x-x-x-x-x-4-x-x-x-x-x-x-x-6-x-x-x-x-x-x-x-
E-|-4-x-x-x-x-x-x-1-x-x-x-x-x-x-x---------------------------------

e-|---------------------------------------------------------------|
B-|---------------------------------------------------------------|
G-|---------------------------------------------------------------|
D-|-------------------------------6-x-x-x-x-x-x-x-8-x-x-x-x-x-x-x-|
A-|-6-x-x-x-x-x-x-3-x-x-x-x-x-x-x-4-x-x-x-x-x-x-x-6-x-x-x-x-x-x-x-|
E-|-4-x-x-x-x-x-x-1-x-x-x-x-x-x-x---------------------------------|

e-|-----------------------------------------------------------------
B-|-----------------------------------------------------------------
G-|-----------------------------------------------------------------
D-|---------------------------------6-6-6-6-6-6-6-6-8-8-8-8-8-8-8-8-
A-|-6-6-6-6-6-6-6-6-3-3-3-3-3-3-3-3-4-4-4-4-4-4-4-4-6-6-6-6-6-6-6-6-
E-|-4-4-4-4-4-4-4-4-1-1-1-1-1-1-1-1---------------------------------

e-|---------------------------------------------------------------|
B-|---------------------------------------------------------------|
G-|---------------------------------------------------------------|
D-|-----------------10-10-10-10-10-10-10-10-6-6-6-6-6-6-6-6-------|
A-|-6-6-6-6-6-6-6-6--8--8--8--8--8--8--8--8-4-4-4-4-4-4-4-4-4-4-4-|
E-|-4-4-4-4-4-4-4-4-----------------------------------------2-2-2-|

e-|-----------------------------------------------------------------
B-|-----------------------------------------------------------------
G-|-----------------------------------------------------------------
D-|---------------------------------6-6-6-6-6-6-6-6-8-8-8-8-8-8-8-8-
A-|-6-6-6-6-6-6-6-6-3-3-3-3-3-3-3-3-4-4-4-4-4-4-4-4-6-6-6-6-6-6-6-6-
E-|-4-4-4-4-4-4-4-4-1-1-1-1-1-1-1-1---------------------------------

e-|-------------------------------------------------------------------------|
B-|-------------------------------------------------------------------------|
G-|-------------------------------------------------------------------------|
D-|-----------------10-10-10-10-10-10-10-10-6-6-6-6-6-6-6-6-8-8-8-8-8-8-8-8-|
A-|-6-6-6-6-6-6-6-6--8--8--8--8--8--8--8--8-4-4-4-4-4-4-4-4-6-6-6-6-6-6-6-6-|
E-|-4-4-4-4-4-4-4-4---------------------------------------------------------|

e-|-----------------------------------------------------------------
B-|-----------------------------------------------------------------
G-|-----------------------------------------------------------------
D-|---------------------------------6-x-x-x-x-x-x-x-8-x-x-x-x-x-x-x-
A-|-6-x-x-x-x-x-x-x-3-x-x-x-x-x-x-x-4---------------6---------------
E-|-4-x-x-x-x-x-x-x-1-x-x-x-x-x-x-x---------------------------------

e-|-----------------------------------------------------------------|
B-|-----------------------------------------------------------------|
G-|-----------------------------------------------------------------|
D-|---------------------------------6-x-x-x-x-x-x-x-8-x-x-x-x-x-x-x-|
A-|-6-x-x-x-x-x-x-x-3-x-x-x-x-x-x-x-4---------------6---------------|
E-|-4-x-x-x-x-x-x-x-1-x-x-x-x-x-x-x---------------------------------|

e-|-----------------------------------------------------------------
B-|-----------------------------------------------------------------
G-|-----------------------------------------------------------------
D-|---------------------------------6-6-6-6-6-6-6-6-8-8-8-8-8-8-8-8-
A-|-6-6-6-6-6-6-6-6-3-3-3-3-3-3-3-3-4-4-4-4-4-4-4-4-6-6-6-6-6-6-6-6-
E-|-4-4-4-4-4-4-4-4-1-1-1-1-1-1-1-1---------------------------------

e-|-------------------------------------------------------------------------|
B-|-------------------------------------------------------------------------|
G-|-------------------------------------------------------------------------|
D-|-----------------10-10-10-10-10-10-10-10-6-6-6-6-6-6-6-6-8-8-8-8-8-8-8-8-|
A-|-6-6-6-6-6-6-6-6--8--8--8--8--8--8--8--8-4-4-4-4-4-4-4-4-6-6-6-6-6-6-6-6-|
E-|-4-4-4-4-4-4-4-4---------------------------------------------------------|

e-|------------------|
B-|------------------|
G-|------------------|
D-|-----6-8---10-6-8-|
A-|-6-3-4-6-6--8-4-6-|
E-|-4-1-----4--------|
2.times.just.bass.

e-|-----------------------------------------------------------------
B-|-----------------------------------------------------------------
G-|-----------------------------------------------------------------
D-|-------------------------------------------------6-6-6-6-6-6-6-6-
A-|-6-6-6-6-6-6-6-6-3-3-3-3-3-3-3-3-4-4-4-4-4-4-4-4-4-4-4-4-4-4-4-4-
E-|-4-4-4-4-4-4-4-4-1-1-1-1-1-1-1-1-2-2-2-2-2-2-2-2-----------------

e-|---------------------------------------------------|
B-|---------------------------------------------------|
G-|---------------------------------------------------|
D-|-----------------10-10-10-10-10-10-10-10--6--8-----|
A-|-6-6-6-6-6-6-6-6--8--8--8--8--8--8--8--8--4--6--6--|
E-|-4-4-4-4-4-4-4-4--------------------------------4--|

----------------------------------------------------------------


Important: The song above is NOT stored on the Chordie server. The original song is hosted at www.xguitar.com. Chordie works as a search engine and provides on-the-fly formatting. Chordie does not index songs against artists'/composers' will. To remove this song please click here.

This song is displayed as text-only. Transposing and tuning is only available for chordpro-songs.

Login - add to songbook

Rating click stars to rate

Layout
Accuracy

SHARE PAGE  




You need to log in to post comments