Guitar Tabs, Chords and Lyrics


Lisa   Good Riddance



----------------------------------------------------------------
Good Riddance - lisa
----------------------------------------------------------------

e-|-----------------------------------------------------
B-|-----------------------------------------------------
G-|-------5-5---5-5---5-5---------5-5---5-5---5-5-------
D-|-------5-5-5-5-5---5-5---2-2---5-5-5-5-5---5-5---2-2-
A-|-7---7-----3-----5-----2-2-2-7-----3-----5-----2-2-2-
E-|-5---5-----------3-----0-----5-----------3-----0-----

e-|-------------------------------------------------|
B-|-------------------------------------------------|
G-|---5-5---5-5---5-5---------5-5---5-5---5-5-------|
D-|---5-5-5-5-5---5-5---2-2---5-5-5-5-5---5-5---2-2-|
A-|-7-----3-----5-----2-2-2-7-----3-----5-----2-2-2-|
E-|-5-----------3-----0-----5-----------3-----0-----|

e-|------------------------------------------------------------------------
B-|------------------------------------------------------------------------
G-|----------------------------------------------14-14-12-14-14------------
D-|---7-9-10-9-7-5-5-10-9-7-10-9-7---9-9-9-10-9-7--------------------------
A-|-7--------------3---------------5---------------------------12-12-10-12-
E-|-5------------------------------3---------------------------------------

e-|------------------------------------------------------------------------|
B-|------------------------------------------------------------------------|
G-|----------------------------------------------14-14-12-14-14------------|
D-|---7-9-10-9-7-5-5-10-9-7-10-9-7---9-9-9-10-9-7--------------------------|
A-|-7--------------3---------------5---------------------------12-12-10-12-|
E-|-5------------------------------3---------------------------------------|

e-|-----------------------------------------|
B-|-----------------------------------------|
G-|-----------------------------------------|
D-|-7-----7-----7-------7-----7-----7-------|
A-|---8-7---8-7---8-7-----8-7---8-7---8-7---|
E-|-------------------5-------------------5-|

e-|-----------------------------------------------------------------
B-|-----------------------------------------------------------------
G-|-----------------------------------------------------------------
D-|-10-10-10-10-10-10-10-10-9-9-9-9-9-9-9-9-14-14-14-14-14-14-14-14-
A-|--8--8--8--8--8--8--8--8-7-7-7-7-7-7-7-7-12-12-12-12-12-12-12-12-
E-|-----------------------------------------------------------------

e-|-----------------------------------------------------------------|
B-|-----------------------------------------------------------------|
G-|-----------------------------------------------------------------|
D-|-12-12-12-12-12-12-12-12-10-10-10-10-10-10-10-10-9-9-9-9-9-9-9-9-|
A-|-10-10-10-10-10-10-10-10--8--8--8--8--8--8--8--8-7-7-7-7-7-7-7-7-|
E-|-----------------------------------------------------------------|

e-|------------------------------------------------------------------
B-|------------------------------------------------------------------
G-|------------------------------------------------------------------
D-|-10-10-10-10-10-10-10-10-10-10-10-10-10-10-10-10--9-9-9-9-9-9-9-9-
A-|------------------------------------------------------------------
E-|--8--8--8--8--8--8--8--8--8--8--8--8--8--8--8--8--7-7-7-7-7-7-7-7-

e-|-----------------------------------------------------------------
B-|-----------------------------------------------------------------
G-|-----------------------------------------------------------------
D-|-7-7-7-7-7-7-9-9-10-10-10-10-10-10-10-10-10-10-10-10-10-10-10-10-
A-|-----------------------------------------------------------------
E-|-5-5-5-5-5-5-7-7--8--8--8--8--8--8--8--8--8--8--8--8--8--8--8--8-

e-|---------------------------------|
B-|---------------------------------|
G-|---------------------------------|
D-|-9-9-9-9-9-9-9-9-7-7-7-7-7-7-9-9-|
A-|---------------------------------|
E-|-7-7-7-7-7-7-7-7-5-5-5-5-5-5-7-7-|

e-|-----------------------------------------|
B-|-----------------------------------------|
G-|-----------------------------------------|
D-|-7-----7-----7-------7-----7-----7-------|
A-|---8-7---8-7---8-7-----8-7---8-7---8-7---|
E-|-------------------5-------------------5-|

e-|-----------------------------------------------------------------
B-|-----------------------------------------------------------------
G-|-----------------------------------------------------------------
D-|-10-10-10-10-10-10-10-10-9-9-9-9-9-9-9-9-14-14-14-14-14-14-14-14-
A-|--8--8--8--8--8--8--8--8-7-7-7-7-7-7-7-7-12-12-12-12-12-12-12-12-
E-|-----------------------------------------------------------------

e-|-----------------------------------------------------------------|
B-|-----------------------------------------------------------------|
G-|-----------------------------------------------------------------|
D-|-12-12-12-12-12-12-12-12-10-10-10-10-10-10-10-10-9-9-9-9-9-9-9-9-|
A-|-10-10-10-10-10-10-10-10--8--8--8--8--8--8--8--8-7-7-7-7-7-7-7-7-|
E-|-----------------------------------------------------------------|

e-|---------|-----------------------------------------
B-|---------|-----------------------------------------
G-|---------|-------------3-5-3-8---5-7-5-7-----------
D-|---------|---5-7-5-7-5-3-5-3-8-7-5-7-5-7-10-10-----
A-|-7-7-7-7-|-7-5-7-5-7-3---------5----------8--8-5-5-
E-|-5-5-5-5-|-5-----------------------------------3-3-

e-|-----------------------------------------
B-|-----------------------------------------
G-|-------------3-5-3-8---5-7-5-7-----------
D-|---5-7-5-7-5-3-5-3-8-7-5-7-5-7-10-10-----
A-|-7-5-7-5-7-3---------5----------8--8-5-5-
E-|-5-----------------------------------3-3-

e-|-----------------------------------------
B-|-----------------------------------------
G-|-------------3-5-3-8---5-7-5-7-----------
D-|---5-7-5-7-5-3-5-3-8-7-5-7-5-7-10-10-----
A-|-7-5-7-5-7-3---------5----------8--8-5-5-
E-|-5-----------------------------------3-3-

e-|-------------------------------------------|
B-|-------------------------------------------|
G-|-------------3-5-3-8---5-7-5-7-------------|
D-|---5-7-5-7-5-3-5-3-8-7-5-7-5-7-10-10-------|
A-|-7-5-7-5-7-3---------5----------8--8-5-5-7-|
E-|-5-----------------------------------3-3-5-|

----------------------------------------------------------------


Important: The song above is NOT stored on the Chordie server. The original song is hosted at www.xguitar.com. Chordie works as a search engine and provides on-the-fly formatting. Chordie does not index songs against artists'/composers' will. To remove this song please click here.

This song is displayed as text-only. Transposing and tuning is only available for chordpro-songs.

Login - add to songbook

Rating click stars to rate

Layout
Accuracy

SHARE PAGE  




You need to log in to post comments