Guitar Tabs, Chords and Lyrics


Man Of God   Good Riddance



----------------------------------------------------------------
Good Riddance - man of god
----------------------------------------------------------------

e-|-----------------------------------------------------
B-|-----------------------------------------------------
G-|-----------------------------------------------------
D-|-------------------7-7-----------------------9-7-5-4-
A-|-7-7-5-7-7-5-7-7-5-5-5-7-7-5-7-7-5-3-3-3-3-2-7-5-3-2-
E-|-5-5-3-5-5-3-5-5-3-----5-5-3-5-5-3-1-1-1-1-0---------

e-|-------------------------------------------
B-|-------------------------------------------
G-|-------------------------------------------
D-|---------------7-7-------------5-5-5-------
A-|-7-7-7-5-7-7-7-5-5-7-7-7-3-3-3-3-3-3-5-5-5-
E-|-5-5-5-3-5-5-5-----5-5-5-1-1-1-------3-3-3-

e-|--------------------------------------------------------------------------
B-|--------------------------------------------------------------------------
G-|--------------------------------------------------------------------------
D-|-9-7-5-4----------5-5-5-5---------7-7-7-7---------5-5-5-5-----------------
A-|-7-5-3-2--7-7-7-7-3-3-3-3-5-5-5-5-5-5-5-5-7-7-7-7-3-3-3-3-5-5-5-5-7-7-7-7-
E-|----------5-5-5-5---------3-3-3-3---------5-5-5-5---------3-3-3-3-5-5-5-5-

e-|------------------------
B-|------------------------
G-|------------------------
D-|-------7-7-7------------
A-|-7-7-7-5-5-5-7-7-5-7-7-3
E-|-5-5-5-------5-5-3-5-5-1

----------------------------------------------------------------


Important: The song above is NOT stored on the Chordie server. The original song is hosted at www.xguitar.com. Chordie works as a search engine and provides on-the-fly formatting. Chordie does not index songs against artists'/composers' will. To remove this song please click here.

This song is displayed as text-only. Transposing and tuning is only available for chordpro-songs.

Login - add to songbook

Rating click stars to rate

Layout
Accuracy

SHARE PAGE  




You need to log in to post comments