Guitar Tabs, Chords and Lyrics


October   Good Riddance



----------------------------------------------------------------
Good Riddance - october
----------------------------------------------------------------

e-|-----------------------------------------------|
B-|-----------------------------------------------|
G-|-----------------------------------------------|
D-|-9-9-7-9-9-7-9-9-7-9-9-7-9-9-7-9-9-7-9-9-7-9-9-|
A-|-7-7-5-7-7-5-7-7-5-7-7-5-7-7-5-7-7-5-7-7-5-7-7-|
E-|-----------------------------------------------|

e-|-----------------------------------------------------------------
B-|-----------------------------------------------------------------
G-|-----------------------------------------------------------------
D-|-9-9-9-9-9-9-9-9---------------------------------9-9-9-9-9-9-9-9-
A-|-7-7-7-7-7-7-7-7-5-5-5-5-5-5-5-5-7-7-7-7-7-7-7-7-7-7-7-7-7-7-7-7-
E-|-----------------3-3-3-3-3-3-3-3-5-5-5-5-5-5-5-5-----------------

e-|-----------------------------------------------------------------
B-|-----------------------------------------------------------------
G-|-----------------------------------------------------------------
D-|-9-9-9-9-9-9-9-9---------------------------------9-9-9-9-9-9-9-9-
A-|-7-7-7-7-7-7-7-7-5-5-5-5-5-5-5-5-7-7-7-7-7-7-7-7-7-7-7-7-7-7-7-7-
E-|-----------------3-3-3-3-3-3-3-3-5-5-5-5-5-5-5-5-----------------

e-|-----------------------------------------------------------------
B-|-----------------------------------------------------------------
G-|-----------------------------------------------------------------
D-|-9-9-9-9-9-9-9-9---------------------------------9-9-9-9-9-9-9-9-
A-|-7-7-7-7-7-7-7-7-5-5-5-5-5-5-5-5-7-7-7-7-7-7-7-7-7-7-7-7-7-7-7-7-
E-|-----------------3-3-3-3-3-3-3-3-5-5-5-5-5-5-5-5-----------------

e-|-----------------------------------------------------------------|
B-|-----------------------------------------------------------------|
G-|-----------------------------------------------------------------|
D-|-9-9-9-9-9-9-9-9---------------------------------9-9-9-9-9-9-9-9-|
A-|-7-7-7-7-7-7-7-7-5-5-5-5-5-5-5-5-7-7-7-7-7-7-7-7-7-7-7-7-7-7-7-7-|
E-|-----------------3-3-3-3-3-3-3-3-5-5-5-5-5-5-5-5-----------------|

e-|-----------------------------------------------------------------|
B-|-----------------------------------------------------------------|
G-|-----------------------------------------------------------------|
D-|-9-9-9-9-5-5-----------------9-9-9-9-9-9-5-5-----------------9-9-|
A-|-7-7-7-7-3-3-5-5-7-7-7-7-3-3-7-7-7-7-7-7-3-3-5-5-7-7-7-7-3-3-7-7-|
E-|-------------3-3-5-5-5-5-1-1-----------------3-3-5-5-5-5-1-1-----|

e-|---------------------------------------------------------------------|
B-|---------------------------------------------------------------------|
G-|---------------------------------------------------------------------|
D-|-9-9-9-9-9-9-9-9-9-9-9-9-9-9-9-9-------------------------------------|
A-|-7-7-7-7-7-7-7-7-7-7-7-7-7-7-7-7-7-7-7-7-7-7-7-7-7-7-7-7-11-11-11-11-|
E-|---------------------------------------------------------------------|

e-|-----------------------------------------------------------------
B-|-----------------------------------------------------------------
G-|-----------------------------------------------------------------
D-|-9-9-9-9-9-9-9-9---------------------------------9-9-9-9-9-9-9-9-
A-|-7-7-7-7-7-7-7-7-5-5-5-5-5-5-5-5-7-7-7-7-7-7-7-7-7-7-7-7-7-7-7-7-
E-|-----------------3-3-3-3-3-3-3-3-5-5-5-5-5-5-5-5-----------------

e-|-----------------------------------------------------------------
B-|-----------------------------------------------------------------
G-|-----------------------------------------------------------------
D-|-9-9-9-9-9-9-9-9---------------------------------9-9-9-9-9-9-9-9-
A-|-7-7-7-7-7-7-7-7-5-5-5-5-5-5-5-5-7-7-7-7-7-7-7-7-7-7-7-7-7-7-7-7-
E-|-----------------3-3-3-3-3-3-3-3-5-5-5-5-5-5-5-5-----------------

e-|-----------------------------------------------------------------
B-|-----------------------------------------------------------------
G-|-----------------------------------------------------------------
D-|-9-9-9-9-9-9-9-9---------------------------------9-9-9-9-9-9-9-9-
A-|-7-7-7-7-7-7-7-7-5-5-5-5-5-5-5-5-7-7-7-7-7-7-7-7-7-7-7-7-7-7-7-7-
E-|-----------------3-3-3-3-3-3-3-3-5-5-5-5-5-5-5-5-----------------

e-|-----------------------------------------------------------------|
B-|-----------------------------------------------------------------|
G-|-----------------------------------------------------------------|
D-|-9-9-9-9-9-9-9-9---------------------------------9-9-9-9-9-9-9-9-|
A-|-7-7-7-7-7-7-7-7-5-5-5-5-5-5-5-5-7-7-7-7-7-7-7-7-7-7-7-7-7-7-7-7-|
E-|-----------------3-3-3-3-3-3-3-3-5-5-5-5-5-5-5-5-----------------|

e-|-----------------------------------------------------------------|
B-|-----------------------------------------------------------------|
G-|-----------------------------------------------------------------|
D-|-9-9-9-9-5-5-----------------9-9-9-9-9-9-5-5-----------------9-9-|
A-|-7-7-7-7-3-3-5-5-7-7-7-7-3-3-7-7-7-7-7-7-3-3-5-5-7-7-7-7-3-3-7-7-|
E-|-------------3-3-5-5-5-5-1-1-----------------3-3-5-5-5-5-1-1-----|
just.bass.6.times
e-|-----------------------------------------------------------------
B-|-----------------------------------------------------------------
G-|-----------------------------------------------------------------
D-|-9-9-9-9-9-9-9-9---------------------------------9-9-9-9-9-9-9-9-
A-|-7-7-7-7-7-7-7-7-5-5-5-5-5-5-5-5-7-7-7-7-7-7-7-7-7-7-7-7-7-7-7-7-
E-|-----------------3-3-3-3-3-3-3-3-5-5-5-5-5-5-5-5-----------------

e-|-----------------------------------------------------------------
B-|-----------------------------------------------------------------
G-|-----------------------------------------------------------------
D-|-9-9-9-9-9-9-9-9---------------------------------9-9-9-9-9-9-9-9-
A-|-7-7-7-7-7-7-7-7-5-5-5-5-5-5-5-5-7-7-7-7-7-7-7-7-7-7-7-7-7-7-7-7-
E-|-----------------3-3-3-3-3-3-3-3-5-5-5-5-5-5-5-5-----------------

e-|-----------------------------------------------------------------
B-|-----------------------------------------------------------------
G-|-----------------------------------------------------------------
D-|-9-9-9-9-9-9-9-9---------------------------------9-9-9-9-9-9-9-9-
A-|-7-7-7-7-7-7-7-7-5-5-5-5-5-5-5-5-7-7-7-7-7-7-7-7-7-7-7-7-7-7-7-7-
E-|-----------------3-3-3-3-3-3-3-3-5-5-5-5-5-5-5-5-----------------

e-|-----------------------------------------------------------------
B-|-----------------------------------------------------------------
G-|-----------------------------------------------------------------
D-|-9-9-9-9-9-9-9-9---------------------------------9-9-9-9-9-9-9-9-
A-|-7-7-7-7-7-7-7-7-5-5-5-5-5-5-5-5-7-7-7-7-7-7-7-7-7-7-7-7-7-7-7-7-
E-|-----------------3-3-3-3-3-3-3-3-5-5-5-5-5-5-5-5-----------------

e-|-----------------------------------------------------------------
B-|-----------------------------------------------------------------
G-|-----------------------------------------------------------------
D-|-9-9-9-9-9-9-9-9---------------------------------9-9-9-9-9-9-9-9-
A-|-7-7-7-7-7-7-7-7-5-5-5-5-5-5-5-5-7-7-7-7-7-7-7-7-7-7-7-7-7-7-7-7-
E-|-----------------3-3-3-3-3-3-3-3-5-5-5-5-5-5-5-5-----------------

e-|-----------------------------------------------------------------
B-|-----------------------------------------------------------------
G-|-----------------------------------------------------------------
D-|-9-9-9-9-9-9-9-9---------------------------------9-9-9-9-9-9-9-9-
A-|-7-7-7-7-7-7-7-7-5-5-5-5-5-5-5-5-7-7-7-7-7-7-7-7-7-7-7-7-7-7-7-7-
E-|-----------------3-3-3-3-3-3-3-3-5-5-5-5-5-5-5-5-----------------

e-|-----------------------------------------------------------------
B-|-----------------------------------------------------------------
G-|-----------------------------------------------------------------
D-|-9-9-9-9-9-9-9-9---------------------------------9-9-9-9-9-9-9-9-
A-|-7-7-7-7-7-7-7-7-5-5-5-5-5-5-5-5-7-7-7-7-7-7-7-7-7-7-7-7-7-7-7-7-
E-|-----------------3-3-3-3-3-3-3-3-5-5-5-5-5-5-5-5-----------------

e-|-----------------------------------------------------------------|
B-|-----------------------------------------------------------------|
G-|-----------------------------------------------------------------|
D-|-9-9-9-9-9-9-9-9---------------------------------9-9-9-9-9-9-9-9-|
A-|-7-7-7-7-7-7-7-7-5-5-5-5-5-5-5-5-7-7-7-7-7-7-7-7-7-7-7-7-7-7-7-7-|
E-|-----------------3-3-3-3-3-3-3-3-5-5-5-5-5-5-5-5-----------------|

----------------------------------------------------------------


Important: The song above is NOT stored on the Chordie server. The original song is hosted at www.xguitar.com. Chordie works as a search engine and provides on-the-fly formatting. Chordie does not index songs against artists'/composers' will. To remove this song please click here.

This song is displayed as text-only. Transposing and tuning is only available for chordpro-songs.

Login - add to songbook

Rating click stars to rate

Layout
Accuracy

SHARE PAGE  




You need to log in to post comments