Guitar Tabs, Chords and Lyrics


Twelve Year Circus   Good Riddance



----------------------------------------------------------------
Good Riddance - twelve year circus
----------------------------------------------------------------

e-|---------------------------------|
B-|---------------------------------|
G-|---------------------------------|
D-|---------------------------------|
A-|-5-5-3-3-5-5-3-3-5-5-3-3-5-5-3-3-|
E-|-3-3-1-1-3-3-1-1-3-3-1-1-3-3-1-1-|

e-|-----------------------------------------------------------------
B-|-----------------------------------------------------------------
G-|-----------------------------------------------------------------
D-|---------8-8-8-8-------------------------8-8-8-8-----------------
A-|-5-5-5-5-6-6-6-6-3-3-3-3-3-3-3-3-5-5-5-5-6-6-6-6-3-3-3-3-3-3-3-3-
E-|-3-3-3-3---------1-1-1-1-1-1-1-1-3-3-3-3---------1-1-1-1-1-1-1-1-

e-|-----------------------------------------------------------------|
B-|-----------------------------------------------------------------|
G-|-----------------------------------------------------------------|
D-|---------8-8-8-8-------------------------8-8-8-8-----------------|
A-|-5-5-5-5-6-6-6-6-3-3-3-3-3-3-3-3-5-5-5-5-6-6-6-6-3-3-3-3-3-3-3-3-|
E-|-3-3-3-3---------1-1-1-1-1-1-1-1-3-3-3-3---------1-1-1-1-1-1-1-1-|

e-|-------------------------------------------------------------
B-|-------------------------------------------------------------
G-|-------------------------------------------------------------
D-|---------------------------5-3---------------------------5-3-
A-|-5-5-x-x-5-5-x-x-5-5-x-x-5-3-1-5-5-x-x-5-5-x-x-5-5-x-x-5-3-1-
E-|-3-3-x-x-3-3-x-x-3-3-x-x-3-----3-3-x-x-3-3-x-x-3-3-x-x-3-----

e-|-------------------------------------------------------------|
B-|-------------------------------------------------------------|
G-|-------------------------------------------------------------|
D-|---------------------------5-3---------------------------5-3-|
A-|-5-5-x-x-5-5-x-x-5-5-x-x-5-3-1-5-5-x-x-5-5-x-x-5-5-x-x-5-3-1-|
E-|-3-3-x-x-3-3-x-x-3-3-x-x-3-----3-3-x-x-3-3-x-x-3-3-x-x-3-----|

e-|-----------------------------------------------------------------
B-|-----------------------------------------------------------------
G-|-----------------------------------------------------------------
D-|-3-3-3-3-------------------------3-3-3-3-------------------------
A-|-1-1-1-1-3-3-3-3-5-5-5-5-5-5-5-5-1-1-1-1-3-3-3-3-5-5-5-5-5-5-5-5-
E-|---------1-1-1-1-3-3-3-3-3-3-3-3---------1-1-1-1-3-3-3-3-3-3-3-3-

e-|-----------------------------------------------------------------|
B-|-----------------------------------------------------------------|
G-|-----------------------------------------------------------------|
D-|-3-3-3-3-------------------------3-3-3-3-------------------------|
A-|-1-1-1-1-3-3-3-3-5-5-5-5-5-5-5-5-1-1-1-1-3-3-3-3-5-5-5-5-5-5-5-5-|
E-|---------1-1-1-1-3-3-3-3-3-3-3-3---------1-1-1-1-3-3-3-3-3-3-3-3-|

e-|-----------------------------------------------------------------
B-|-----------------------------------------------------------------
G-|-----------------------------------------------------------------
D-|---------8-8-8-8-------------------------8-8-8-8-----------------
A-|-5-5-5-5-6-6-6-6-3-3-3-3-3-3-3-3-5-5-5-5-6-6-6-6-3-3-3-3-3-3-3-3-
E-|-3-3-3-3---------1-1-1-1-1-1-1-1-3-3-3-3---------1-1-1-1-1-1-1-1-

e-|-----------------------------------------------------------------|
B-|-----------------------------------------------------------------|
G-|-----------------------------------------------------------------|
D-|---------8-8-8-8-------------------------8-8-8-8-----------------|
A-|-5-5-5-5-6-6-6-6-3-3-3-3-3-3-3-3-5-5-5-5-6-6-6-6-3-3-3-3-3-3-3-3-|
E-|-3-3-3-3---------1-1-1-1-1-1-1-1-3-3-3-3---------1-1-1-1-1-1-1-1-|

e-|-------------------------------------------------------------
B-|-------------------------------------------------------------
G-|-------------------------------------------------------------
D-|---------------------------5-3---------------------------5-3-
A-|-5-5-x-x-5-5-x-x-5-5-x-x-5-3-1-5-5-x-x-5-5-x-x-5-5-x-x-5-3-1-
E-|-3-3-x-x-3-3-x-x-3-3-x-x-3-----3-3-x-x-3-3-x-x-3-3-x-x-3-----

e-|-------------------------------------------------------------|
B-|-------------------------------------------------------------|
G-|-------------------------------------------------------------|
D-|---------------------------5-3---------------------------5-3-|
A-|-5-5-x-x-5-5-x-x-5-5-x-x-5-3-1-5-5-x-x-5-5-x-x-5-5-x-x-5-3-1-|
E-|-3-3-x-x-3-3-x-x-3-3-x-x-3-----3-3-x-x-3-3-x-x-3-3-x-x-3-----|

e-|-----------------------------------------------------------------
B-|-----------------------------------------------------------------
G-|-----------------------------------------------------------------
D-|-3-3-3-3-------------------------3-3-3-3-------------------------
A-|-1-1-1-1-3-3-3-3-5-5-5-5-5-5-5-5-1-1-1-1-3-3-3-3-5-5-5-5-5-5-5-5-
E-|---------1-1-1-1-3-3-3-3-3-3-3-3---------1-1-1-1-3-3-3-3-3-3-3-3-

e-|-----------------------------------------------------------------|
B-|-----------------------------------------------------------------|
G-|-----------------------------------------------------------------|
D-|-3-3-3-3-------------------------3-3-3-3-------------------------|
A-|-1-1-1-1-3-3-3-3-5-5-5-5-5-5-5-5-1-1-1-1-3-3-3-3-5-5-5-5-5-5-5-5-|
E-|---------1-1-1-1-3-3-3-3-3-3-3-3---------1-1-1-1-3-3-3-3-3-3-3-3-|

e-|---------------------------------|
B-|---------------------------------|
G-|---------------------------------|
D-|---------------------------------|
A-|-5-5-3-3-5-5-3-3-5-5-3-3-5-5-3-3-|
E-|-3-3-1-1-3-3-1-1-3-3-1-1-3-3-1-1-|

e-|-----------------------------------------------------------------
B-|-----------------------------------------------------------------
G-|-----------------------------------------------------------------
D-|---------------------------------8-8-8-8-8-8-8-8-8-8-8-8-8-8-----
A-|-5-5-5-5-5-5-5-5-3-3-3-3-3-3-3-3-6-6-6-6-6-6-6-6-6-6-6-6-6-6-8-8-
E-|-3-3-3-3-3-3-3-3-1-1-1-1-1-1-1-1-----------------------------6-6-

e-|-----------------------------------------------------------------|
B-|-----------------------------------------------------------------|
G-|-----------------------------------------------------------------|
D-|---------------------------------8-8-8-8-8-8-8-8-8-8-8-8-8-8-----|
A-|-5-5-5-5-5-5-5-5-3-3-3-3-3-3-3-3-6-6-6-6-6-6-6-6-6-6-6-6-6-6-8-8-|
E-|-3-3-3-3-3-3-3-3-1-1-1-1-1-1-1-1-----------------------------6-6-|

e-|-----------------------------------------------------------------
B-|-----------------------------------------------------------------
G-|-----------------------------------------------------------------
D-|-----------------8-8-8-8-8-8---------------------8-8-8-8-8-8-----
A-|-5-5-5-5-3-3-3-3-6-6-6-6-6-6-8-8-5-5-5-5-3-3-3-3-6-6-6-6-6-6-8-8-
E-|-3-3-3-3-1-1-1-1-------------6-6-3-3-3-3-1-1-1-1-------------6-6-

e-|-----------------------------------------------------------------|
B-|-----------------------------------------------------------------|
G-|-----------------------------------------------------------------|
D-|-----------------8-8-8-8-8-8---------------------8-8-8-8-8-8-----|
A-|-5-5-5-5-3-3-3-3-6-6-6-6-6-6-8-8-5-5-5-5-3-3-3-3-6-6-6-6-6-6-8-8-|
E-|-3-3-3-3-1-1-1-1-------------6-6-3-3-3-3-1-1-1-1-------------6-6-|

e-|-----------------------------------------------------------------
B-|-----------------------------------------------------------------
G-|-----------------------------------------------------------------
D-|---------------------------------8-8-8-8-8-8-8-8-8-8-8-8-8-8-8-8-
A-|-5-5-5-5-5-5-5-5-3-3-3-3-3-3-3-3-6-6-6-6-6-6-6-6-6-6-6-6-6-6-6-6-
E-|-3-3-3-3-3-3-3-3-1-1-1-1-1-1-1-1---------------------------------

e-|-----------------------------------------------------------------|
B-|-----------------------------------------------------------------|
G-|-----------------------------------------------------------------|
D-|---------------------------------8-8-8-8-8-8-8-8-8-8-8-8-8-8-8-8-|
A-|-5-5-5-5-5-5-5-5-3-3-3-3-3-3-3-3-6-6-6-6-6-6-6-6-6-6-6-6-6-6-6-6-|
E-|-3-3-3-3-3-3-3-3-1-1-1-1-1-1-1-1---------------------------------|

e-|-------------------------------------------------------------
B-|-------------------------------------------------------------
G-|-------------------------------------------------------------
D-|-12-12-12-10-10-10-8-8-8-8-8-8-12-12-12-10-10-10-8-8-8-8-8-8-
A-|-10-10-10--8--8--8-6-6-6-6-6-6-10-10-10--8--8--8-6-6-6-6-6-6-
E-|-------------------------------------------------------------

e-|-------------------------------------------------------------------|
B-|-------------------------------------------------------------------|
G-|-------------------------------------------------------------------|
D-|-12-12-12-10-10-10-8-8-8-8-8-8-12-12-12-10-10-10-8-8-8-8-8-8-----8-|
A-|-10-10-10--8--8--8-6-6-6-6-6-6-10-10-10--8--8--8-6-6-6-6-6-6-5-1-6-|
E-|-------------------------------------------------------------3-1---|

----------------------------------------------------------------


Important: The song above is NOT stored on the Chordie server. The original song is hosted at www.xguitar.com. Chordie works as a search engine and provides on-the-fly formatting. Chordie does not index songs against artists'/composers' will. To remove this song please click here.

This song is displayed as text-only. Transposing and tuning is only available for chordpro-songs.

Login - add to songbook

Rating click stars to rate

Layout
Accuracy

SHARE PAGE  




You need to log in to post comments