Guitar Tabs, Chords and Lyrics


United Cigar   Good Riddance



----------------------------------------------------------------
Good Riddance - united cigar
----------------------------------------------------------------

e-|--------------------|
B-|--------------------|
G-|-----------11-10----|
D-|-11----11--------11-|
A-|----11--------------|
E-|--------------------|

e-|-------------------------------------------------------------------------
B-|-------------------------------------------------------------------------
G-|-------------------------------------------------------------------------
D-|-6-6-6-6-5-5-5-5-3-3-3-3---------6-6-6-6-5-5-5-5-3-3-3-3-----------------
A-|-4-4-4-4-3-3-3-3-1-1-1-1-6-6-6-6-4-4-4-4-3-3-3-3-1-1-1-1-6-6-6-6-4-x-x-x-
E-|-------------------------4-4-4-4-------------------------4-4-4-4-2-x-x-x-

e-|------------------------------------------------------------------------|
B-|------------------------------------------------------------------------|
G-|------------------------------------------------------------------------|
D-|------------------------------------------------------------------------|
A-|-4-x-x-x-4-x-x-x-4-x-x-x-4--4-4-4-4-4-4-4-4-4-4-4-4-4-4-4-4-4-4-4-4-4-4-|
E-|-2-x-x-x-2-x-x-x-2-x-x-x-2--2-2-2-2-2-2-2-2-2-2-2-2-2-2-2-2-2-2-2-2-2-2-|

e-|-------------------------------------------------------------------------
B-|-------------------------------------------------------------------------
G-|-------------------------------------------------------------------------
D-|-6-6-6-6-6-6-6-6-----------------11-11-11-11-11-11-11-11-----------------
A-|-4-4-4-4-4-4-4-4-3-3-3-3-3-3-3-3--9--9--9--9--9--9--9--9-6-x-x-x-x-x-x-x-
E-|-----------------1-1-1-1-1-1-1-1-------------------------4-x-x-x-x-x-x-x-

e-|-------------------------------------------------------------------------|
B-|-------------------------------------------------------------------------|
G-|-------------------------------------------------------------------------|
D-|-6-6-6-6-6-6-6-6-----------------11-11-11-11-11-11-11-11-----------------|
A-|-4-4-4-4-4-4-4-4-3-3-3-3-3-3-3-3--9--9--9--9--9--9--9--9-6-x-x-x-x-x-x-x-|
E-|-----------------1-1-1-1-1-1-1-1-------------------------4-x-x-x-x-x-x-x-|

e-|-----------------------------------------------------------------
B-|-----------------------------------------------------------------
G-|-----------------------------------------------------------------
D-|---------------------------------6-6-6-6-6-6-6-6-----------------
A-|-8-8-8-8-8-8-8-8-4-4-4-4-4-4-4-4-4-4-4-4-4-4-4-4-6-6-6-6-6-6-6-6-
E-|-6-6-6-6-6-6-6-6-2-2-2-2-2-2-2-2-----------------4-4-4-4-4-4-4-4-

e-|-----------------------------------------------------------------|
B-|-----------------------------------------------------------------|
G-|-----------------------------------------------------------------|
D-|---------------------------------6-6-6-6-6-6-6-6-----------------|
A-|-8-8-8-8-8-8-8-8-4-4-4-4-4-4-4-4-4-4-4-4-4-4-4-4-6-6-6-6-6-6-6-6-|
E-|-6-6-6-6-6-6-6-6-2-2-2-2-2-2-2-2-----------------4-4-4-4-4-4-4-4-|

e-|-------------------------------------------------------------------------
B-|-------------------------------------------------------------------------
G-|-------------------------------------------------------------------------
D-|-6-6-6-6-6-6-6-6-----------------11-11-11-11-11-11-11-11-----------------
A-|-4-4-4-4-4-4-4-4-3-3-3-3-3-3-3-3--9--9--9--9--9--9--9--9-6-x-x-x-x-x-x-x-
E-|-----------------1-1-1-1-1-1-1-1-------------------------4-x-x-x-x-x-x-x-

e-|-------------------------------------------------------------------------|
B-|-------------------------------------------------------------------------|
G-|-------------------------------------------------------------------------|
D-|-6-6-6-6-6-6-6-6-----------------11-11-11-11-11-11-11-11-----------------|
A-|-4-4-4-4-4-4-4-4-3-3-3-3-3-3-3-3--9--9--9--9--9--9--9--9-6-x-x-x-x-x-x-x-|
E-|-----------------1-1-1-1-1-1-1-1-------------------------4-x-x-x-x-x-x-x-|

e-|-----------------------------------------------------------------
B-|-----------------------------------------------------------------
G-|-----------------------------------------------------------------
D-|---------------------------------6-6-6-6-6-6-6-6-----------------
A-|-8-8-8-8-8-8-8-8-4-4-4-4-4-4-4-4-4-4-4-4-4-4-4-4-6-6-6-6-6-6-6-6-
E-|-6-6-6-6-6-6-6-6-2-2-2-2-2-2-2-2-----------------4-4-4-4-4-4-4-4-

e-|-----------------------------------------------------------------|
B-|-----------------------------------------------------------------|
G-|-----------------------------------------------------------------|
D-|---------------------------------6-6-6-6-6-6-6-6-----------------|
A-|-8-8-8-8-8-8-8-8-4-4-4-4-4-4-4-4-4-4-4-4-4-4-4-4-6-6-6-6-6-6-6-6-|
E-|-6-6-6-6-6-6-6-6-2-2-2-2-2-2-2-2-----------------4-4-4-4-4-4-4-4-|

e-|-----------------------------------------------------------------
B-|-----------------------------------------------------------------
G-|-----------------------------------------------------------------
D-|-----------------------------------------------------------------
A-|-8-x-x-x-8-x-x-x-8-x-x-x-8-x-x-x-8-x-x-x-8-x-x-x-8-x-x-x-8-x-x-x-
E-|-6-x-x-x-6-x-x-x-6-x-x-x-6-x-x-x-6-x-x-x-6-x-x-x-6-x-x-x-6-x-x-x-

e-|-----------------------------------------------------------------
B-|-----------------------------------------------------------------
G-|-----------------------------------------------------------------
D-|-----------------------------------------------------------------
A-|-8-x-x-x-8-x-x-x-8-x-x-x-8-x-x-x-8-x-x-x-8-x-x-x-8-x-x-x-8-x-x-x-
E-|-6-x-x-x-6-x-x-x-6-x-x-x-6-x-x-x-6-x-x-x-6-x-x-x-6-x-x-x-6-x-x-x-

e-|---------------------------------------------
B-|---------------------------------------------
G-|---------------------------------------------
D-|---------------------11-11-11-11-13-13-13-13-
A-|-8-8-8-8-11-11-11-11--9--9--9--9-11-11-11-11-
E-|-6-6-6-6--9--9--9--9-------------------------

e-|---------------------------------------------|
B-|---------------------------------------------|
G-|---------------------------------------------|
D-|---------------------11-11-11-11-13-13-13-13-|
A-|-8-8-8-8-11-11-11-11--9--9--9--9-11-11-11-11-|
E-|-6-6-6-6--9--9--9--9-------------------------|

e-|-------------------------------------------------------------------------
B-|-------------------------------------------------------------------------
G-|-------------------------------------------------------------------------
D-|-6-6-6-6-5-5-5-5-3-3-3-3---------6-6-6-6-5-5-5-5-3-3-3-3-----------------
A-|-4-4-4-4-3-3-3-3-1-1-1-1-6-6-6-6-4-4-4-4-3-3-3-3-1-1-1-1-6-6-6-6-4-x-x-x-
E-|-------------------------4-4-4-4-------------------------4-4-4-4-2-x-x-x-

e-|------------------------------------------------------------------------|
B-|------------------------------------------------------------------------|
G-|------------------------------------------------------------------------|
D-|------------------------------------------------------------------------|
A-|-4-x-x-x-4-x-x-x-4-x-x-x-4--4-4-4-4-4-4-4-4-4-4-4-4-4-4-4-4-4-4-4-4-4-4-|
E-|-2-x-x-x-2-x-x-x-2-x-x-x-2--2-2-2-2-2-2-2-2-2-2-2-2-2-2-2-2-2-2-2-2-2-2-|

----------------------------------------------------------------


Important: The song above is NOT stored on the Chordie server. The original song is hosted at www.xguitar.com. Chordie works as a search engine and provides on-the-fly formatting. Chordie does not index songs against artists'/composers' will. To remove this song please click here.

This song is displayed as text-only. Transposing and tuning is only available for chordpro-songs.

Login - add to songbook

Rating click stars to rate

Layout
Accuracy

SHARE PAGE  




You need to log in to post comments