Guitar Tabs, Chords and Lyrics


Wrong Again   Good Riddance



----------------------------------------------------------------
Good Riddance - wrong again
----------------------------------------------------------------

e-|------------------------------------------------------------------------
B-|------------------------------------------------------------------------
G-|------------------------------------------------------------------------
D-|-----------5-5-5-5---10-9-10-9---5-5-5-5--7-7-9-9---5-5-5-5---10-9-10-9-
A-|-7--7--7-7-3-3-3-3-5--8-7--8-7-7-3-3-3-3--5-5-7-7-7-3-3-3-3-5--8-7--8-7-
E-|-5--5--5-5---------3-----------5------------------5---------3-----------

e-|-----------------------------|
B-|-----------------------------|
G-|-----------------------------|
D-|---5-5-5-5-------10-10-10-10-|
A-|-7-3-3-3-3-7--5---8--8--8--8-|
E-|-5---------5--3--------------|

e-|----------------------------------------------------------------------
B-|----------------------------------------------------------------------
G-|----------------------------------------------------------------------
D-|-------10-5-5-5-5-5-5-5-5-5-5-5-5-12-12-12-12-12-12-12-12-12-12-12-12-
A-|-7--7---8-3-3-3-3-3-3-3-3-3-3-3-3-10-10-10-10-10-10-10-10-10-10-10-10-
E-|-5--5-----------------------------------------------------------------

e-|----------------------------------------------------------------------|
B-|----------------------------------------------------------------------|
G-|----------------------------------------------------------------------|
D-|-------10-5-5-5-5-5-5-5-5-5-5-5-5-12-12-12-12-12-12-12-12-12-12-12-12-|
A-|-7--7---8-3-3-3-3-3-3-3-3-3-3-3-3-10-10-10-10-10-10-10-10-10-10-10-10-|
E-|-5--5-----------------------------------------------------------------|

e-|------------------------------------------------------------------------
B-|------------------------------------------------------------------------
G-|------------------------------------------------------------------------
D-|-5-5-5-5-5-5-5----10-10-9-9-7-7-5-5-12-12-12-12-12-12-12-12-------------
A-|-3-3-3-3-3-3-3-7-7------------------10-10-10-10-10-10-10-10-3-3-3-3-3-3-
E-|---------------5-5------------------------------------------1-1-1-1-1-1-

e-|------------------------------------------------------------------------|
B-|------------------------------------------------------------------------|
G-|------------------------------------------------------------------------|
D-|-5-5-5-5-5-5-5----10-10-9-9-7-7-5-5-12-12-12-12-12-12-12-12-------------|
A-|-3-3-3-3-3-3-3-7-7------------------10-10-10-10-10-10-10-10-3-3-3-3-3-3-|
E-|---------------5-5------------------------------------------1-1-1-1-1-1-|

e-|----------------------------------------------------------------------
B-|----------------------------------------------------------------------
G-|----------------------------------------------------------------------
D-|-------10-5-5-5-5-5-5-5-5-5-5-5-5-12-12-12-12-12-12-12-12-12-12-12-12-
A-|-7--7---8-3-3-3-3-3-3-3-3-3-3-3-3-10-10-10-10-10-10-10-10-10-10-10-10-
E-|-5--5-----------------------------------------------------------------

e-|----------------------------------------------------------------------|
B-|----------------------------------------------------------------------|
G-|----------------------------------------------------------------------|
D-|-------10-5-5-5-5-5-5-5-5-5-5-5-5-12-12-12-12-12-12-12-12-12-12-12-12-|
A-|-7--7---8-3-3-3-3-3-3-3-3-3-3-3-3-10-10-10-10-10-10-10-10-10-10-10-10-|
E-|-5--5-----------------------------------------------------------------|

e-|------------------------------------------------------------------------
B-|------------------------------------------------------------------------
G-|------------------------------------------------------------------------
D-|-5-5-5-5-5-5-5----10-10-9-9-7-7-5-5-12-12-12-12-12-12-12-12-------------
A-|-3-3-3-3-3-3-3-7-7------------------10-10-10-10-10-10-10-10-3-3-3-3-3-3-
E-|---------------5-5------------------------------------------1-1-1-1-1-1-

e-|------------------------------------------------------------------------
B-|------------------------------------------------------------------------
G-|------------------------------------------------------------------------
D-|-5-5-5-5-5-5-5----10-10-9-9-7-7-5-5-12-12-12-12-12-12-12-12-------------
A-|-3-3-3-3-3-3-3-7-7------------------10-10-10-10-10-10-10-10-3-3-3-3-3-3-
E-|---------------5-5------------------------------------------1-1-1-1-1-1-

e-|-----------------------|--------------------|
B-|-----------------------|--------------------|
G-|-----------------------|-------10-9-12-10-9-|
D-|-----------------------|-----7--------------|
A-|-3-3-3-3-3-3-3-3-3-3-3-|-7-7----------------|
E-|-1-1-1-1-1-1-1-1-1-1-1-|-5-5----------------|

e-|----------------------------------------------------------------------|
B-|----------------------------------------------------------------------|
G-|----------------------------------------------------------------------|
D-|----------10-10-9-7----------10-10-9-7----------10-10-9-7----------10-|
A-|-7-7-9-10--8--8-7-5-7-7-9-10--8--8-7-5-7-7-9-10--8--8-7-5-7-7-9-10--8-|
E-|-5-5-7--8-----------5-5-7--8-----------5-5-7--8-----------5-5-7--8----|

----------------------------------------------------------------


Important: The song above is NOT stored on the Chordie server. The original song is hosted at www.xguitar.com. Chordie works as a search engine and provides on-the-fly formatting. Chordie does not index songs against artists'/composers' will. To remove this song please click here.

This song is displayed as text-only. Transposing and tuning is only available for chordpro-songs.

Login - add to songbook

Rating click stars to rate

Layout
Accuracy

SHARE PAGE  




You need to log in to post comments