Guitar Tabs, Chords and Lyrics


Eighteen Seconds   Good Riddance



eighteen seconds- Good RIddance

e|--------------------------------------------|
B|--------------------------------------------|
G|--------------------------------------------|
D|-6-x-x-6-x-x-6-x-x-6~-----------------------|
A|-6-x-x-6-x-x-6-x-x-6~-----------------------|
E|-4-x-x-4-x-x-4-x-x-4~-----------------------|

e|----------------------------3x----------------------------------|
B|----------------------------------------------------------------|
G|---7---7---7---7-4-4-4-4-4--------------------------------------|
D|-6-7-6-7-6-7-6-7-4-4-4-4-4-7-7-7-7-7----------------------------|
A|-6-5-6-5-6-5-6-5-2-2-2-2-2-7-7-7-7-7----------------------------|
E|-4---4---4---4-------------5-5-5-5-5----------------------------|

e|----------------------------------------------------------------|
B|----------------------------------------------------------------|
G|----------------------------------------------------------------|
D|-6-6-6-6-6-4-4-4-4-4-7------------------------------------------|
A|-6-6-6-6-6-4-4-4-4-4-7------------------------------------------|


Important: The song above is NOT stored on the Chordie server. The original song is hosted at www.xguitar.com. Chordie works as a search engine and provides on-the-fly formatting. Chordie does not index songs against artists'/composers' will. To remove this song please click here.

This song is displayed as text-only. Transposing and tuning is only available for chordpro-songs.

Login - add to songbook

Rating click stars to rate

Layout
Accuracy

SHARE PAGE  




You need to log in to post comments