Guitar Tabs, Chords and Lyrics


Letters Home   Good Riddance



LETTERS HOME - GOOD RIDDANCE  *tabbed by saedi*

INTRO

e---------------------------------------------------
b---------------------------------------------------
g------4-----4-----4-----4-----4-----4-----4--4--3--
d----4-----4-----4-----4-----4-----4-----4----------
a--2-----2------------------------------------------
e--------------3-----3-----2-----2-----3------------

VERSE

e----------------------------------------------------------------------------------------------------
b----------------------------------------------------------------------------------------------------
g--4--4-4-4-4--3-4-4--4-xx---------------------------------------------------------------------------
d--4--4-4-4-4--4-4-4--4-xx5--5-5-5-5--5-5-5--5-xx4--4-4-4-4-4-4-4-4-4-4-4-4-4-5--5-5-5-5-4--4-4--4---
a--2--2-2-2-2--2-2-2--2-xx5--5-5-5-5--5-5-5--5-xx4--4-4-4-4-4-4-4-4-4-4-4-4-4-5--5-5-5-5-4--4-4--4---
e-------------------------3--3-3-3-3--3-3-3--3-xx2--2-2-2-2-2-2-2-2-2-2-2-2-2-3--3-3-3-3-2--2-2--2---
                                                   |....... palm mute........|

e-------------------------------------------------------------------------------------
b-------------------------------------------------------------------------------------
g--4--4-4-4-4--3-4-4--6-7-6--6-6-6-7--4-4-4--4-xx3-11~---9-12--12--12-12-111111-11--
d-------------------------------------------------------------------------------------
a--2--2-2-2-2--2-2-2--4-5-4--4-4-4-5--2-2-2--2-xx1--9~---7-10--10--10-10--9-9-9--9--
e-------------------------------------------------------------------------------------

e----------------------------------------------------------------------------------------------------
b----------------------------------------------------------------------------------------------------
g--4--4-4-4-4--3-4-4--4-xx---------------------------------------------------------------------------
d--4--4-4-4-4--4-4-4--4-xx5--5-5-5-5--5-5-5--5-xx4--4-4-4-4-4-4-4-4-4-4-4-4-4-5--5-5-5-5-4--4-4--4---
a--2--2-2-2-2--2-2-2--2-xx5--5-5-5-5--5-5-5--5-xx4--4-4-4-4-4-4-4-4-4-4-4-4-4-5--5-5-5-5-4--4-4--4---
e-------------------------3--3-3-3-3--3-3-3--3-xx2--2-2-2-2-2-2-2-2-2-2-2-2-2-3--3-3-3-3-2--2-2--2---
                                                   |....... palm mute........|
1) so many...             |said, thoses....      |promises...                    |would..|mattered...
2) i guess...             |weeks...              |on my mind...                  |when.. |find...

e----------------------------------------------------------------------------------------------------
b----------------------------------------------------------------------------------------------------
g--4--4-4-4-4--3-4-4--4-xx---------------------------------------------------------------------------
d--4--4-4-4-4--4-4-4--4-xx5--5-5-5-5--5-5-5--5-xx4--4-4-4-4-4-4-4-4-4-4-4-4-4-5--5-5-5-5-4--4-4--4---
a--2--2-2-2-2--2-2-2--2-xx5--5-5-5-5--5-5-5--5-xx4--4-4-4-4-4-4-4-4-4-4-4-4-4-5--5-5-5-5-4--4-4--4---
e-------------------------3--3-3-3-3--3-3-3--3-xx2--2-2-2-2-2-2-2-2-2-2-2-2-2-3--3-3-3-3-2--2-2--2---
                                                   |....... palm mute........|
1) had....                |felt....              |losing...                      |would..|understood..
2) back to...             |left..                |drenched with...               |conf...|worst fears..

CHORUS

e---------------------------------------------------------------------------------------------------
b---------------------------------------------------------------------------------------------------
g--7--7-7-7-7--7-7-7--7-xx--------------------------------------------------------------------------
d--7--7-7-7-7--7-7-7--7-xx4--4-4-4-4--4-4-4--4-xx9--9-9-9-9--7--7-7-7--7-7-5--5-5-5-5--5-5-5--5-xx--
a--5--5-5-5-5--5-5-5--5-xx4--4-4-4-4--4-4-4--4-xx9--9-9-9-9--7--7-7-7--7-7-5--5-5-5-5--5-5-5--5-xx--
e-------------------------2--2-2-2-2--2-2-2--2-xx7--7-7-7-7--5--5-5-5--5-5-3--3-3-3-3--3-3-3--3-xx--
   remember when...       |wait forever...       |and I...   |thought...   |was true

e---------------------------------------------------------------------------------------------------
b---------------------------------------------------------------------------------------------------
g--7--7-7-7-7--7-7-7--7-xx6--6-6-6-6--6-6-6--6-xx7--7-7-7-7--6--6-6-6--6-6-4--4-4-4-4--4-4-4--4-xx--
d--7--7-7-7-7--7-7-7--7-xx4--4-4-4-4--4-4-4--4-xx---------------------------------------------------
a--5--5-5-5-5--5-5-5--5-xx--------------------------------------------------------------------------
e------------------------------------------------7--7-7-7-7--5--5-5-5--5-5-3--3-3-3-3--3-3-3--3-xx--
   and as                 |keeps on              |i'll...    |letters...   |you...

e-------------------------------------------------------------------------------------
b-------------------------------------------------------------------------------------
g-------------------------------------------------------------------------------------
d--9--9-9-9-9--7--7-7-7--7-7-5--5-5-5-5--5-5-5--5-xx9-----------7------------5--------
a--9--9-9-9-9--7--7-7-7--7-7-5--5-5-5-5--5-5-5--5-xx9-----------7------------5--------
e--7--7-7-7-7--5--5-5-5--5-5-3--3-3-3-3--3-3-3--3-xx7-----------5------------3--------
   'cos i...   |know...      |to do....             |i'll      wait        for you

OUTRO

e---------------------------------------------------
b---------------------------------------------------
g------4-----4-----4-----4-----4-----4-----4-----4--
d----4-----4-----4-----4-----4-----4-----4-----4----
a--2-----2-----2-----2-----2-----2-----2-----2------
e---------------------------------------------------

e---------------------------------------------------
b---------------------------------------------------
g------4-----4-----4-----4-----4-----4-----4-----4--
d----4-----4-----4-----4-----4-----4-----4-----4----
a--2-----2------------------------------------------


Important: The song above is NOT stored on the Chordie server. The original song is hosted at www.xguitar.com. Chordie works as a search engine and provides on-the-fly formatting. Chordie does not index songs against artists/composers will. To remove this song please click here.

This song is displayed as text-only. Transposing and tuning is only available for chordpro-songs.

Login - add to songbook

Rating click stars to rate

Layout
Accuracy

SHARE PAGE  




You need to log in to post comments