Guitar Tabs, Chords and Lyrics


The Hardest Part   Good Riddance



Band: Good Riddance
Song: The Hardest Part
Album: Operation Phoenix

I decided to take a shot at tabbing this song
because it is great and because of the general
lack of Good Riddance tabs on the internet.
You have to figure out the exact strumming
and order yourself, I’m too lazy too do that.
Send comments or corrections to: tobias(a)franticsound.dk

Intro:

E|------------------------
B|------------------------
G|--12-10-8-7-8-7-5-3-----
D|---xâ€"-x-x-x-x-x-x-x-----
A|--10â€"-8-6-5-6-5-3-1-----
E|------------------------

Verse:

E|-----------------------------------
B|-----------------------------------
G|---------888-----777-888-----------
D|--555555-888-888-777-888-----------
A|--555555-666-888-555-666-----------
E|--333333-----666-------------------

Variation:

E|---------------------------------------
B|---------------------------------------
G|---------888-----777-888-8-7-5-3-------
D|--555555-888-888-777-888-x-x-x-x-------
A|--555555-666-888-555-666-6-5-3-1-------
E|--333333-----666-----------------------

Last time:

E|-------------------------------------------------
B|-------------------------------------------------
G|---------888-----777-888-101010-12121212---------
D|--555555-888-888-777-888-101010--x-x-x-x---------
A|--555555-666-888-555-666--8-8-8-10101010---------
E|--333333-----666---------------------------------

Chorus:

E|-----------------------------------------------
B|-----------------------------------------------
G|-----------------------888888-1010101010-------
D|--555555-888888-555555-xxxxxx--x-x-x-x-x-------
A|--555555-888888-555555-666666--8-8-8-8-8-------
E|--333333-666666-333333-------------------------

Last time:

E|--------------------------------------------------------
B|--------------------------------------------------------
G|-----------------------8-7-5-3-7-5-3-14-121212121212----
D|--555555-888888-555555-x-x-x-x-x-x-x--xâ€"-x-x-x-x-x-x----
A|--555555-888888-555555-6-5-3-1-5-3-1-12-101010101010----
E|--333333-666666-333333----------------------------------

Bridge:

E|-----------------------------------------------
B|-----------------------------------------------
G|--10-12-let ring--12---12-10-8-7---------------
D|---x-x-------------x----xâ€"xâ€"-x-x---------------
A|---8-10-----------10---10-8â€"-6-5---------------
E|-----------------------------------------------

Guitar 1:
E|--------------------------------------
B|--------------------------------------
G|--12-let ring--12-10-12-10-1212-------
D|---x------------x--x--x--xâ€"-x-x-------
A|--10-----------10--8â€"10--8-1010-------
E|--------------------------------------

Guitar 2:
E|-------------------------------
B|-------------------------------
G|----------------88-------------
D|--555555-888888-88-------------
A|--555555-888888-66-------------
E|--333333-666666----------------
PM  ……………  ………………

Outro:
E|---------------------------------------------------------------
B|---------------------------------------------------------------
G|----------------8-7-5-3---------------8-7-5-14-1212-10-12------
D|--555555-888888-x-x-x-x-55555--555555-x-x-x--x--x-xâ€"-xâ€"x-------
A|--555555-888888-6-5-3-1-55555--555555-6-5-3-12-1010--8-10------


Important: The song above is NOT stored on the Chordie server. The original song is hosted at www.xguitar.com. Chordie works as a search engine and provides on-the-fly formatting. Chordie does not index songs against artists'/composers' will. To remove this song please click here.

This song is displayed as text-only. Transposing and tuning is only available for chordpro-songs.

Login - add to songbook

Rating click stars to rate

Layout
Accuracy

SHARE PAGE  




You need to log in to post comments