Guitar Tabs, Chords and Lyrics


Uniontown   Good Riddance



-------------------------------------------------------------------------------
			     UNIONTOWN - Good Riddance
-------------------------------------------------------------------------------

By: Fat Pete (terrorman31@hotmail.com)

Standard tuning. (eBGDAE)

This is my first tab, I give no guarantees... The rhythm isn't correctly tabbed
out, but you'll figure out how many times you should strum each chord... It's
not that hard. The "solo" is a little messy, but it's so *** easy to play, so
you'll get it... OK, feel free to send me corrections, comments or boogers to
the above mentioned e-mail adress.
(Only guitar 1)

INTRO:
e|---------------------------------------------------------------------------|
B|--------9--------9-----------------9--9--9---9^----------------------------|
G|-8~--------8--6----8-----8h9-6------88-88-88-(that part is really----------|
D|-----------------------------------------------hard to hear)---------------|
A|---------------------------------------------------------------------------|
E|---------------------------------------------------------------------------|

VERSE:
e|---------------------------------------------------------------------------|
B|---------------------------------------------------------------------------|
G|-6-6-------7-7-7-7-9-9-7-------6-6-X-44------------------------------------|
D|-6-6-------7-7-7-7-9-9-7-------6-6-X-44------------------------------------|
A|-4-4-2/4/2-5-5-5-5-7-7-5-5/7/5-4-4-X-22------------------------------------|
E|---------------------------------------------------------------------------|

CHORUS:
e|---------------------------------------------------------------------------|
B|---------------------------------------------------------------------------|
G|---------6-6-6-6--8-8-6-6-4-6-6-6--4-6-8-8---------------------------------|
D|-6-6-7-7-6-6-6-6--8-8-6-6-4-6-6-6--4-6-8-8---------------------------------|
A|-6-6-7-7-4-4-4-4--6-6-4-4-2-4-4-4--2-4-6-6---------------------------------|
E|-4-4-5-5-------------------------------------------------------------------|

SOLO:
e|---------------------------------------------------------------------------|
B|-10-10-10-9~----10-10-10-9-7-5-7/-(9)--------------------------------------|
G|---------------------------------------------------------------------------|
D|---------------------------------------------------------------------------|
A|---------------------------------------------------------------------------|
E|---------------------------------------------------------------------------|

e|-----------------9-9-9-7-5-4-7/9/7-----9--7--5--4--7--5--4--2--------------|
B|-10-10-10-9~---------------------------------------------------------------|
G|---------------------------------------------------------------------------|
D|---------------------------------------------------------------------------|
A|---------------------------------------------------------------------------|
E|---------------------------------------------------------------------------|

e|-5--4--2--0----------------------------------------------------------------|
B|-------------4--5----5----5/4----2-------5/4----2--------------------------|
G|---------------------------------------------------------------------------|
D|---------------------------------------------------------------------------|
A|---------------------------------------------------------------------------|
E|---------------------------------------------------------------------------|

e|---------------------------------------------------------------------------|
B|--5-4-2-0--4-2-0--10-9-----------------------------------------------------|
G|---------------------------------------------------------------------------|
D|---------------------------------------------------------------------------|
A|---------------------------------------------------------------------------|
E|---------------------------------------------------------------------------|

ENDING:
e|---------------------------------------------------------------------------|
B|---------------------------------------------------------------------------|
G|-------6----------6----------6----------6----------------------------------|
D|-4h5p4-6----4h5p4-6----4h5p4-6----4h5p4-6----------------------------------|
A|-------4----------4----------4----------4----------------------------------|
E|---------------------------------------------------------------------------|



Important: The song above is NOT stored on the Chordie server. The original song is hosted at www.xguitar.com. Chordie works as a search engine and provides on-the-fly formatting. Chordie does not index songs against artists'/composers' will. To remove this song please click here.

This song is displayed as text-only. Transposing and tuning is only available for chordpro-songs.

Login - add to songbook

Rating click stars to rate

Layout
Accuracy

SHARE PAGE  




You need to log in to post comments