Guitar Tabs, Chords and Lyrics


Fire Engine Red   Good Riddance



"Fire Engine Red" - Good Riddance
Tabbed by Sean DeLonge
Easy song, it only took a good 2 and a half hours to figure out.

Intro
e-----------------------------------------------------------------
B-----------------------------------------------------------------
G--11-11-11-9-11-----11-11-9-11---11-11-11-9-11------14-13-11-10--
D-----------------------------------------------------------------
A-----------------------------------------------------------------
E-----------------------------------------------------------------

e------------------------------------------------
B------------------------------------------------
G--11-11-11-9-11-----11-11-9-11-----14-13-11-10--
D------------------------------------------------
A------------------------------------------------
E------------------------------------------------

Verse

e---------------------------------------------
B---------------------------------------------
G--------------4------------------------------
D--4---7---2---4------------------------------
A--4---7---2---2------------------------------
E--2---5---0----------------------------------

Chorus

e------------------------------------
B------------------------------------
G---7---6----------------------------
D---7---6----------------------------
A---5---4----------------------------
E------------------------------------


Post Chorus

e--------------------------------------------------------------------------------------------------
B-------------------------------------------------------------------------------------------------
G------7----------------------------------------------------------------------------------------
D--5---7----------------------------------------------------------------------------------------
A--5---5----------------------------------------------------------------------------------------
E--2--------------------------------------------------------------------------------------------

Lead Riff thingy

e------------------------------------------------------------------------------------------------
B------------------------------------------------------------------------------------------------
G---------------------------14-13------------------------------------------------------
D-16-16-16-14-16------16-16-------16-14----------------------------------------------
A-----------------------------------------------------------------------------------------------
E-----------------------------------------------------------------------------------------------

e------------------------------------------------------------------------------------------------
B------------------------------------------------------------------------------------------------
G-----------------------------14-13------------------------------------------------------
D-16-16-16-14-16------16-16-------16-14----------------------------------------------
A-----------------------------------------------------------------------------------------------
E-----------------------------------------------------------------------------------------------

e------------------------------------------------------------------------------------------------
B------------------------------------------------------------------------------------------------
G------------------14-13----13-11----11(ring)---------------------------------------------
D-16-16-16-14-16---------14-------14-----------------------------------------------
A-----------------------------------------------------------------------------------------------
E-----------------------------------------------------------------------------------------------

Palm Muted End Part

e------------------------------------------------------------------------------------------------
B------------------------------------------------------------------------------------------------
G------------------------------------------------------------------------------------------------
D-------4-----------------4---------------------------------------------------------------------
A---7---2----4--------7---2----2---4-----------------------------------------------------------
E---5--------2--------5--------0---2-----------------------------------------------------------
                      (Palm muted x3)

End Part
e------------------------------------------------------------------------------------------------
B------------------------------------------------------------------------------------------------
G-----------99999--7-6--7-------------------------------------------------------------------
D--------------------------------4--------------------------------------------------------------
A8212--777--77777--8212-5-4-5----4-------------------------------------------------------------
E----555-------------------------2--------------------------------------------------------------

e------------------------------------------------------------------------------------------------
B-----------------------------------------------------------------------------------------------
G------------------------------------------------------------------------------------------------
D-----------------444-----------4-------------------------------------------------------------
A---7777777---222---222---4--------------------------------------------------------------


Important: The song above is NOT stored on the Chordie server. The original song is hosted at www.xguitar.com. Chordie works as a search engine and provides on-the-fly formatting. Chordie does not index songs against artists'/composers' will. To remove this song please click here.

This song is displayed as text-only. Transposing and tuning is only available for chordpro-songs.

Login - add to songbook

Rating click stars to rate

Layout
Accuracy

SHARE PAGE  




You need to log in to post comments