Guitar Tabs, Chords and Lyrics


Yesterday's Headlines   Good Riddance



-------------------------------------------------------------------------------
                  Good Riddance – Yesterdays Headlines
-------------------------------------------------------------------------------

Intro
e|----------------------------------------------------------------------------|
B|----------------------------------------------------------------------------|
G|-----------x-x-x----x-x-x----15-14-15----15-14-15----15-14-15-19-18-14-15---|
D|-x-x-x-----x-x-x----x-x-x---------------------------------------------------|
A|-x-x-x-----x-x-x----x-x-x---------------------------------------------------|
E|-x-x-x----------------------------------------------------------------------|

e|----------------------------------------------------------------------------|
B|----------------------------------------------------------------------------|
G|----------------------------------------------------------------------------|
D|-6-6-6-6--5-5--6-6-6-6--5-5--6-6-6-6--5-5--6-6-6-6-6-6-6-6------------------|
A|-6-6-6-6--5-5--6-6-6-6--5-5--6-6-6-6--5-5--6-6-6-6-6-6-6-6------------------|
E|-4-4-4-4--3-3--4-4-4-4--3-3--4-4-4-4--3-3--4-4-4-4-4-4-4-4------------------|

Verse
e|----------------------------------------------------------------------------|
B|----------------------------------------------------------------------------|
G|----------------------------------------------------------------------x-x-x-|
D|----------------------------------------------------------------------x-x-x-|
A|-66666666-44444444-66666666-44-55-66666666-44444444-66666666--2/3\\2/3-x-x-x-|
E|-44444444-22222222-44444444-22-33-44444444-22222222-44444444----------------|
   ******** ******** ******** ** ** ******** ******** ********
e|----------------------------------------------------------------------------|
B|----------------------------------------------------------------------------|
G|----------------------------------------------------------------------------|
D|------------------------------------------------------------66666666--------|
A|-66666666-44444444-66666666-44-55-66666666-44444444-6666666666666666--------|
E|-44444444-22222222-44444444-22-33-44444444-22222222-4444444444444444--------|
   ******** ******** ******** ** ** ******** ******** ********

Chorus
e|----------------------------------------------------------------------------|
B|----------------------------------------------------------------------------|
G|-4-4-4-4--6-6-6-6--13-13-11-11--8-8-8-8--4-4-4-4--6-6-6-6-------------------|
D|-----------------------------------------------------------6-6-6-6-6--4-4---|
A|-2-2-2-2--4-4-4-4--11-11--9--9--6-6-6-6--2-2-2-2--4-4-4-4--6-6-6-6-6--4-4---|
E|-----------------------------------------------------------4-4-4-4-4--2-2---|

e|----------------------------------------------------------------------------|
B|----------------------------------------------------------------------------|
G|-----------------4-4-4-4--6-6-6-6--13-13-11-11--8-8-8-8--4-4-4-4------------|
D|-6-6-6-6-6--4-4---------------------------------------------------2~--------|
A|-6-6-6-6-6--4-4--2-2-2-2--4-4-4-4--11-11--9--9--6-6-6-6--2-2-2-2--2~--------|
E|-4-4-4-4-4--2-2---------------------------------------------------0~--------|

Post Chorus
e|----------------------------------------------------------------------------|
B|----------------------------------------------------------------------------|
G|----------------------------------------------------------------------------|
D|-6-6-6-6-6-6--5-------------------------------------------------------------|
A|-6-6-6-6-6-6--5-------------------------------------------------------------|
E|-4-4-4-4-4-4--3-------------------------------------------------------------|

Verse

Chorus
Bridge
e|----------------------------------------------------------------------------|
B|----------------------------------------------------------------------------|
G|----------------------------------------------------------------------------|
D|----------------------------------------------------------------------------|
A|-66666666-44444444-66666666-44-55-66666666-44444444-6666666666666666--------|
E|-44444444-22222222-44444444-22-33-44444444-22222222-4444444444444444--------|
   ******** ******** ******** ** ** ******** ******** ****************
e|----------------------------------------------------------------------------|
B|----------------------------------------------------------------------------|
G|----------------------------------------------------------------------------|
D|-66666666-44444444-66666666-44-55-66666666-44444444-6666666666666666--------|
A|-66666666-44444444-66666666-44-55-66666666-44444444-6666666666666666--------|
E|-44444444-22222222-44444444-22-33-44444444-22222222-4444444444444444--------|
   ******** ******** ******** ** ** ******** ******** ********

Finish
e|----------------------------------------------------------------------------|
B|----------------------------------------------------------------------------|
G|----------------------------------------------------------------------------|
D|---8-8-8-8-7-8--8-8-8-8-7-8--8-8-8-8-7-8-11-10----10------------------------|
A|-----------------------------------------------11---------------------------|
E|----------------------------------------------------------------------------|

e|----------------------------------------------------------------------------|
B|----------------------------------------------------------------------------|
G|----------------------------------------------------------------------------|
D|---8-8-8-8-7-8--8-8-8-8-7-8--8-8-8-8-7-8-11-10----10\\9\\8\\0------------------|
A|-----------------------------------------------11---------------------------|


Important: The song above is NOT stored on the Chordie server. The original song is hosted at www.xguitar.com. Chordie works as a search engine and provides on-the-fly formatting. Chordie does not index songs against artists'/composers' will. To remove this song please click here.

This song is displayed as text-only. Transposing and tuning is only available for chordpro-songs.

Login - add to songbook

Rating click stars to rate

Layout
Accuracy

SHARE PAGE  




You need to log in to post comments