Guitar Tabs, Chords and Lyrics


O Green World    Gorillaz



"O Green World"

Band: Gorillaz
Album: Demon Days

This first part of the intro is hard, but here's my attempt. If you have any
correction, PLEASE email me.

Intro (Play 1x)

e|-------------|
B|-10b-10b-10b-|

e|------------------------------------|
B|-10b-12-10b-12-10b-12-10b-12-10b-12-|

e|--------15-----------15-----------15-----------15-----------15-----------15----nonsense-|
B|-10b-12----12-10b-12----12-10b-12----12-10b-12----12-10b-12----12-10b-12----12-nonsense-|


Into Cont'd
(All Bass)

Guitar Riff 2 (Play 5x)


|-----------------------------------------------------------|
|-----------------------------------------------------------|
|-7-7-x-x-7-7-x-x-7-7-x-x-7-7-5-7-10-10-x-x-10-10-x-x-10-10-|
|-7-7-x-x-7-7-x-x-7-7-x-x-7-7-5-7-10-10-x-x-10-10-x-x-10-10-|
|-5-5-x-x-5-5-x-x-5-5-x-x-5-5-3-5-8--8--x-x-8--8--x-x-8--8--|
|-----------------------------------------------------------|

|--------------------------------------------------------------------------------------------------|
|--------------------------------------------------------------------------------------------------|
|-x-(7)-10-10-7-10-12-12-x-x-12-12-x-x-12-12-x-x-12-12-10-12-14-14-x-x-14-14-14-14-2-2-2-2-2-2-5-5-|
|-x-(7)-10-10-7-10-12-12-x-x-12-12-x-x-12-12-x-x-12-12-10-12-14-14-x-x-14-14-14-14-2-2-2-2-2-2-5-5-|
|-x-(5)-8--8--5-8--10-10-x-x-10-10-x-x-10-10-x-x-10-10-8--10-12-12-x-x-12-12-12-12-0-0-0-0-0-0-3-3-|
|--------------------------------------------------------------------------------------------------|

Repeat Bass intro



Important: The song above is NOT stored on the Chordie server. The original song is hosted at www.xguitar.com. Chordie works as a search engine and provides on-the-fly formatting. Chordie does not index songs against artists'/composers' will. To remove this song please click here.

This song is displayed as text-only. Transposing and tuning is only available for chordpro-songs.

Login - add to songbook

Rating click stars to rate

Layout
Accuracy

SHARE PAGE  




You need to log in to post comments