Guitar Tabs, Chords and Lyrics


Slow Country    Gorillaz



Date: Sat, 6 Jul 2002 08:11:38 -0700 (PDT)



Slow Country
As performed by Gorillaz (in their first album)

transcribed by: Breno Bacci (breno_bacci@yahoo.com)

Starts with drums and fx, then the solo - maybe it's
in the piano but it's tabbed for guitar here, if
anyone knows the exact way to play then post it.

INTRO SOLO

e --------4---4-7-4-5-5-5-5-5-----4----|
B ------5---5-------------------5---5--|

VERSE & CHORUS CHORDS

Again, it's not exactly as it is in the song.
There's a chord missed, I think that maybe is C#,
but I think it goes through with E and A, same for
chorus.

PRE-CHORUS SOLO

e ---------------------------------------------------------------|
B ---5-----------------------------------------------------------|
G -----6--4---6--4---4/2-----------------------------------------|
D -------------------------4/2----2--2---------------------------|
A --------------------------------------4--2---4--2--------------|
E ----------------------------------------------------4--2---0---|

Chorus: Can't stand your loneliness...

verse 

CHORUS

la-lo-la... and chorus again...



Important: The song above is NOT stored on the Chordie server. The original song is hosted at www.xguitar.com. Chordie works as a search engine and provides on-the-fly formatting. Chordie does not index songs against artists'/composers' will. To remove this song please click here.

This song is displayed as text-only. Transposing and tuning is only available for chordpro-songs.

Login - add to songbook

Rating click stars to rate

Layout
Accuracy

SHARE PAGE  




You need to log in to post comments