Guitar Tabs, Chords and Lyrics


Spectacular    Graham Coxon



Graham Coxon
Spectacular


I think this is all you need to play it, im not sure of the order


Intro
e-------------------------
B-------------------------
G-------------------------
D--777777--5-7-5-7-5------
A--777777--5-7-5-7-5------
E--555555--3-5-3-5-3------


Verse x2
e-------------------------
B-------------------------
G-------------------------
D--777777--5-7-5-7-5------
A--777777--5-7-5-7-5------
E--555555--3-5-3-5-3------

e-------------------------
B-------------------------
G--555555-----------------
D--555555--5-7-5-7-5------
A--333333--5-7-5-7-5------
E----------3-5-3-5-3------


Chorus
e-------------------------
B---7--8--3--2------------
G---7--8--3--2------------
D---7--8--3--2------------
A---5--6--1---------------
E-------------------------

e-------------------------
B-------------------------
G-------------------------
D--777777--5-7-5-7-5------
A--777777--5-7-5-7-5------
E--555555--3-5-3-5-3------

Outro
e-------------------------
B-------------------------
G-------------------------
D--777777--5-7-5-7-5------
A--777777--5-7-5-7-5------


Important: The song above is NOT stored on the Chordie server. The original song is hosted at www.xguitar.com. Chordie works as a search engine and provides on-the-fly formatting. Chordie does not index songs against artists'/composers' will. To remove this song please click here.

This song is displayed as text-only. Transposing and tuning is only available for chordpro-songs.

Login - add to songbook

Rating click stars to rate

Layout
Accuracy

SHARE PAGE  




You need to log in to post comments