Guitar Tabs, Chords and Lyrics


Locked Doors    Graham Coxon



LOCKED DOORS
GRAHAM COXON/THE KISS OF MORNING

Intro
e|-0-------------|4x
B|-3---ring------|
G|-1-------------|
D|-2-------------|
A|-2-------------|
E|-0-------------|

Main riff
e|-----------------0----|4x   |---------------0------|2x
B|-----------------3----|     |---------------2------|
G|-0h1----------1--1----|     |0h1---------0--0------|
D|-----0h2------2--2----|     |-----0h2----2--2------|
A|----------------------|     |----------0-0--0------|
E|-----------0----------|     |----------------------|

e|-----------------0----|2x  |-------------------------0--|
B|-----------------3----|    |--------------2-2--------2--|
G|-0h1----------1--1----|    |-0h1----------2-2--2-0---0--|
D|-----0h2------2--2----|    |-----0h2------1-1--------2--|
A|----------------------|    |---------0-2--2-2--------0--|
E|-----------0----------|    |----------------------------|

e|-----------------0----|2x
B|-----------------3----|
G|-0h1----------1--1----|
D|-----0h2------2--2----|
A|----------------------|
E|-----------0----------|

Solo,,just kill the guitar!
e|----------------------------------------------------------|w/b: while bend
B|----------------------------------------------------/12t--|
G|--7---repeat a lot----------------------------------------|
D|--8fb------------------/14t--8b-6-8-6-8b-8-8--6-8b--------|
A|-----------------------------------------w/b--------------|
E|----------------------------------------------------------|

Post chorus
e|--------------0--0----|4x   |---------------0------|2x
B|--------------3--3----|     |---------------2------|
G|-0h1----------1--1----|     |0h1---------0--0------|
D|-----0h2------2--2----|     |-----0h2----2--2------|
A|----------------------|     |----------0-0--0------|
E|-----------0----------|     |----------------------|

e|-----------------0----|2x  |-------------------------------|
B|-----------------3----|    |-0------------2-2---0h2p0------|
G|-0h1----------1--1----|    |--------------2-2--------------|
D|-----0h2------2--2----|    |----0h1p0-----1-1----------0h2-|
A|----------------------|    |-----------2-------------------|
E|-----------0----------|    |-------------------------------|

outro
e|-----------------------0----------------------|
B|-2h3--3---2-2----------3----------------------|
G|-2h4--4---2-2---0-1----1----------------------|
D|-----------------------2----------------------|
A|----------------------------------------------|


Important: The song above is NOT stored on the Chordie server. The original song is hosted at www.xguitar.com. Chordie works as a search engine and provides on-the-fly formatting. Chordie does not index songs against artists'/composers' will. To remove this song please click here.

This song is displayed as text-only. Transposing and tuning is only available for chordpro-songs.

Login - add to songbook

Rating click stars to rate

Layout
Accuracy

SHARE PAGE  




You need to log in to post comments