eToCache5 = ""; ?> Far From Me by Grateful Dead - guitar chords, guitar tabs and lyrics - chordie

Far From Me

Grateful Dead

 D
 DA
 You say you want to try again
 D
Better read it down between the lines
 A
Well, I have a better end in mind.

 GA
It doesn't seem you really have to
 DAGBm/D
 Close your eyes to see   

Tab and chord charts for this part

F#5 * Bm Bm/A G SN G F# E D
Though I know you don't mean to be
Em A *F#7 (no 3rd)
You are so far from me.

There was something I had caught inside
Screamin' hard to make it known
Oh, in time it died alone
It doesn't seem you really have to
Close your eyes to see
You have been all you'll be to me

Bm Bass Line

 Bm
 It's just too late

Jerry Riff

 A
And we can't relate at all.

It doesn't seem you really have to
Close your eyes to see
Though I know you don't mean to be
You are so far from me.

 GADG
 This time's the last time I want to say so long(So Long,ooh)
 GAD
 This song's my last song for you
 GADG
 There's just nothing here to hold on to again  (Hold On To)
 GAD
 Nothing to hold on to.                   

Intro

(^) Slide Up (\) Slide Down (h) Hammer On (p) Pull Off (b) Bend

Includes opening chords

E-----------------------------------------------------------
B-------7h8p7-----------------------------------------------
G---------------7-------------------------------------------
D---7-------------------------------------------------------
A-----------------------------------------------------------
E-----------------------------------------------------------


Though I Know

(^) Slide Up (\) Slide Down (h) Hammer On (p) Pull Off (b) Bend

E------------------------------------7----------------7-----
B---7-----------------------7---5----7-------------7-----10-
G---6---------------4---7------------7----------7-----------
D---4--------------------------------9----------------------
A---4--------------------------------9----------------------
E------------------------------------7----------------------

Though I know you don't mean to be

E---------------------0-------------0-----------------------
B----8---7------------0-------------2-----------------------
G------------9---7----0-------------2-----------------------
D---------------------2-------------2-----------------------
A---------------------2-------------0-----------------------
E---------------------0-------------------------------------

You are so far from me

Bm Bass Line

(^) Slide Up (\) Slide Down (h) Hammer On (p) Pull Off (b) Bend

E-----------------------------------------------------------
B-----------------------------------------------------------
G-----------------------------------------------------------
D-----------4---2-------------------------------------------
A---2---4-----------5---4---2-------------------------------
E-----------------------------------------------------------


Jerry Riff

(^) Slide Up (\) Slide Down (h) Hammer On (p) Pull Off (b) Bend

E-----------12--14--15--14--12------12--14------------------
B---14--15----------------------15--------------------------
G-----------------------------------------------------------
D-----------------------------------------------------------
A-----------------------------------------------------------
E-----------------------------------------------------------



A Bm Bm/D D G
variations - click chord images
Transpose chords:
Tuning:
Cool service:
View: Size:
A  A  A
Rating:
Layout:
  • Currently 4/5 Stars.
  • 1
  • 2
  • 3
  • 4
  • 5
 
Accuracy:
  • Currently 4/5 Stars.
  • 1
  • 2
  • 3
  • 4
  • 5
 
click stars to rate
Chordie recommends:
Learn to play songs at Jamplay.com with video guitar lessons
Songbook:
Login to add this song to your songbook
Support the artist
Preview/buy this song
MSN Music
Why this non-profit ad?

 
login to add comments/video/corrections